Song name
# A B C D E F G H I J K L M N O P Q R S T U V W X Y Z

Two Tongues - Tremors tab

-----------------------------------------------------------------------------
			     Tremors - Two Tongues
-----------------------------------------------------------------------------
Tabbed by: Cjb2293

Tuning: Standard


INTRO/VERSE:
e|--x-x---x-x---x-x---x-x--|--x-x---x-x---x-x---x-x-|
B|--4-4---x-x---x-x---x-x--|--4-4---x-x---x-x---8-8-|X3
G|--5-5---8-8---3-3---8-8--|--5-5---8-8---8-8---8-8-|
D|--3-3---6-6---6-6---6-6--|--3-3---6-6---6-6---6-6-|
A|--3-3---4-4---3-3---4-4--|--3-3---4-4---4-4---6-6-|
E|--x-x---x-x---x-x---x-x--|--x-x---x-x---x-x---x-x-|


CHORUS:
e|--x-x-x-x-x-x-x-x-x-x-x-x-x-x-x-x-|
B|--4-4-4-4-x-x-x-x-x-x-x-x-x-x-x-x-|X4
G|--5-5-5-5-8-8-8-8-3-3-3-3-8-8-8-8-|
D|--3-3-3-3-6-6-6-6-6-6-6-6-6-6-6-6-|
A|--3-3-3-3-4-4-4-4-3-3-3-3-6-6-6-6-|
E|--x-x-x-x-x-x-x-x-x-x-x-x-x-x-x-x-|

PREVERSE:
e|--x-x---x-x---x-x---x-x--|
B|--4-4---x-x---x-x---x-x--|
G|--5-5---8-8---3-3---8-8--|
D|--3-3---6-6---6-6---6-6--|
A|--3-3---4-4---3-3---4-4--|
E|--x-x---x-x---x-x---x-x--|

VERSE:
e|--x-x---x-x---x-x---x-x--|--x-x---x-x---x-x---x-x-|
B|--4-4---x-x---x-x---x-x--|--4-4---x-x---x-x---8-8-|X3
G|--5-5---8-8---3-3---8-8--|--5-5---8-8---8-8---8-8-|
D|--3-3---6-6---6-6---6-6--|--3-3---6-6---6-6---6-6-|
A|--3-3---4-4---3-3---4-4--|--3-3---4-4---4-4---6-6-|
E|--x-x---x-x---x-x---x-x--|--x-x---x-x---x-x---x-x-|


CHORUS:
e|--x-x-x-x-x-x-x-x-x-x-x-x-x-x-x-x-|
B|--4-4-4-4-x-x-x-x-x-x-x-x-x-x-x-x-|X4
G|--5-5-5-5-8-8-8-8-3-3-3-3-8-8-8-8-|
D|--3-3-3-3-6-6-6-6-6-6-6-6-6-6-6-6-|
A|--3-3-3-3-4-4-4-4-3-3-3-3-6-6-6-6-|
E|--x-x-x-x-x-x-x-x-x-x-x-x-x-x-x-x-|


BRIDGE: (Didn't have the time to figure out this part, if u know if, please post it in a 
and i'll edit in for you)

PRECHORUS:
e|--x-x---x-x---x-x---x-x--|--x-x---x-x---x-x---x-x-|
B|--4-4---x-x---x-x---x-x--|--4-4---x-x---x-x---8-8-|X1
G|--5-5---8-8---3-3---8-8--|--5-5---8-8---8-8---8-8-|
D|--3-3---6-6---6-6---6-6--|--3-3---6-6---6-6---6-6-|
A|--3-3---4-4---3-3---4-4--|--3-3---4-4---4-4---6-6-|
E|--x-x---x-x---x-x---x-x--|--x-x---x-x---x-x---x-x-|

CHORUS:
e|--x-x-x-x-x-x-x-x-x-x-x-x-x-x-x-x-|
B|--4-4-4-4-x-x-x-x-x-x-x-x-x-x-x-x-|X7
G|--5-5-5-5-8-8-8-8-3-3-3-3-8-8-8-8-|
D|--3-3-3-3-6-6-6-6-6-6-6-6-6-6-6-6-|
A|--3-3-3-3-4-4-4-4-3-3-3-3-6-6-6-6-|
E|--x-x-x-x-x-x-x-x-x-x-x-x-x-x-x-x-|

ENDING:
e|--x---x---x----|
B|--4---x---x----|
G|--5---3---8----|
D|--3---6---6----|
A|--3---3---4----|
E|--x---x---x----|

| /  slide up
| \  slide down
| h  hammer-on
| p  pull-off
| ~  vibrato
| +  harmonic
| x  Mute note
===============================================================================
Tap to rate this tab
 
# A B C D E F G H I J K L M N O P Q R S T U V W X Y Z