Song name
# A B C D E F G H I J K L M N O P Q R S T U V W X Y Z

Two Wounded Birds - Night Patrol tab

Night Patrol by Two Wounded Birds, enjoy:)

e|-----------------------------------------------------------------------|
B|-----------------------------------------------------------------------|
G|-----------------------------------------------------------------------|
D|-----------------------------------------------------------------------| 
A|-----------------5-5-4-4-2-2-0----------------5-5-4-4-2-2-0------------|
E|-2--2--2---2-2------------------2--2--2--2-2---------------------------|

e|-----------------------------------------------------------------------|
B|-----------------------------------------------------------------------|
G|-----------------------------------------------------------------------|
D|-----------------------------------------------------------------------| 
A|----------------5-5-4-4-2-2-0----------------5-5-4-4-2-2-0-------------|
E|-2--2--2---2-2------------------2--2--2--2-2---------------------------|

e|-----------------------------------------------------------------------|
B|-----------------------------------------------------------------------|
G|-----------------------------------------------------------------------|
D|----------------5-5-4-4-2-2-0------------------------------------------| 
A|-2--2--2---2-2--------------------------------5-5-4-4-2-2-0------------|
E|-------------------------------2--2--2---2-2---------------------------|

e|-----------------------------------------------------------------------|
B|-----------------------------------------------------------------------|
G|-----------------------------------------------------------------------|
D|----------5-4-2---2-2-3--2-0-------5-4-2---2-2-4-2--0------------------| 
A|-2-2-2----------------------2-2-2--------------------------------------|
E|-----------------------------------------------------------------------|

e|-----------------------------------------------------------------------|
B|-----------------------------------------------------------------------|
G|-----------------------------------------------------------------------|
D|-----------------------------------------------------------------------| 
A|------------------5-5-4-4-2-2-0-----------------------4-4-4-4-4-0------|
E|--2--2--2---2-2---------------------2--2--2---2-2------------------2---|

Repeat it :}

http://twowoundedbirds.com/ 
Tap to rate this tab
# A B C D E F G H I J K L M N O P Q R S T U V W X Y Z