Guitaretab - guitar tabs
Song name
# A B C D E F G H I J K L M N O P Q R S T U V W X Y Z

Two - Rock N Roll tab

Highlighted       Show chord diagrams
RockíníRoll


Intro:
	D          Bm         A         E          E       D
E|-------2--|---------|---------|---------|   |-------|-|--------|-|
B|---3------|-------3-|-------2-|-------0-|   |-------|-|--------|-|
G|-------2--|----4----|----2----|----1----|2x |---1---V-|----2---V-|
D|-0--------|-------4-|-------2-|-------2-|   |---------|----------|
A|----------|-2-------|-0-------|-2-------|   |-2-------|--0-------|
E|----------|---------|---------|---------|   |---------|----------|
     D            A           E
E|----3-----|------------|---------|
H|-------3--|--|-----3---|---------|
G|-2--------|--|-------2-|---|-----|
D|----------|--V--2------|---|-----|
A|----------|------------|---V-----|
E|----------|------------|---------|

D Bm A E   D Bm A E     D A E G


     D       A        Bm         G
Iím walking home and look to the top
     D       A        Bm         G
The sun is smiliní  no clouds in sky
     D       A        Bm         G
Step after step one minute to home
     D       A        Bm         G
Where my stringflog is wating for me


D A E G

Chorus:
[ Tab from: http://www.guitaretab.com/t/two/157712.html ]
D        A
Hey hey hey
        E             G
Iím so happy so Iím singing
D        A 
Hey hey hey
        E             G
Iím so happy so Iím dancing
D        A 
Hey hey hey
        E             G
Iím so happy so Iím get crazy


D A E G

     D       A        Bm         G
Iím walking in and run to my room
     D       A        Bm         G
I throw my bag away and forget everything 
     D       A        Bm         G
I take my string-flog and play some chords 
     D       A        Bm         G
Chord after chord thatís Rock'n' roll

D A E G

Chorus:

D        A
Hey hey hey
        E             G
Iím so happy so Iím singing
D        A 
Hey hey hey
        E             G
Iím so happy so Iím dancing
D        A 
Hey hey hey
        E             G
Iím so happy so Iím get crazy

D A E G

     D       A        Bm         G
RockíníRoll is my life and I live and play it
     D       A        Bm         G 
RockíníRoll like the beatles and the stones
     D       A        Bm         G
Everyday I feel it and play something new
     D       A        Bm         G
Rockíní Roll  I love you


D A E G

Chorus:

D        A
Hey hey hey
        E             G
Iím so happy so Iím singing
D        A 
Hey hey hey
        E             G
Iím so happy so Iím dancing
D        A 
Hey hey hey
        E             G
Iím so happy so Iím get crazy
Related for Rock N Roll tab