Song name
# A B C D E F G H I J K L M N O P Q R S T U V W X Y Z

Txus - Todo Lo Que Soy chords

Highlighted       Show chord diagrams
Intro:

    D       A       G                                         A
e|----2--|-----0--|----------------------------------------|-----------|
B|----3--|-----2--|-------3-----3---------3-----0-------0--|-----2/3/2-|
G|----2--|-----2--|-------0-----0---------0-----0-------0--|-----2-----|
D|-0-----|--2-----|-------0-----0---------0-----0-------3--|-----2-----|
A|-------|--------|--0-2-----0-----------------------------|--0--------|
E|-------|--------|----------------0-2-3-----2-----2-3-----|-----------|
     D        A         G        D        G           A      D
e|-----2--|-----5--|----------|--2--|------------|--------|--2--|
B|-----3--|-----2--|-------3--|--3--|---------3--|-----2--|--3--|
G|-----2--|-----2--|-------0--|--2--|---------0--|-----2--|--2--|
D|--0-----|--2-----|-------0--|--0--|---------0--|-----2--|--0--|
A|--------|--------|--0-2-----|-----|------------|--0-----|-----|
E|--------|--------|----------|-----|--0-2-3-----|--------|-----|


D      A   G
Sonreir, fue lo mas importante
D       A
que el demostro
D     A
me enseņo
G
a juzgar con prudencia
D        A
vivir sin temor
G                 D
dicen que tengo sus ojos
G                    D    A
dicen que tengo su voz
G                   D
y que anclado en mi alma
G                   A
yace el barco de su corazon.

G           A
Volare muy lejos
D     A        G
hasta el mismo sol
G           A
surcare los mares
D      A           G
con su viento a mi favor
G         A
pedire al cielo
D    A          G
que me otorgue su favor
G
para encontrale y decirle
             A
que gracias a el
                D
soy todo lo que soy

D      A
con teson
G
me llevo a conocer
D             A
cada parte de mi
D       A
se empeņo
G
en no dejarme caer
D                A
y empujarme a seguir
G                  D
dicen que tengo su risa
G                         D  A
sus miedos su fuerza y valor
G                        D
que cuando yo canto el habla
G                          A
que atravez de mi suena su voz

G           A
Volare muy lejos
D     A        G
hasta el mismo sol
G           A
surcare los mares
D      A           G
con su viento a mi favor
G         A
pedire al cielo
D    A          G
que me otorgue su favor
G
para encontrale y decirle
             A
que gracias a el
                 D
soy todo lo que soy


*EL FINAL ES IGUAL QUE EL INTRO PERO EN RITARDANDO     [BY EMIQ]

Dedidicada a todos lo seguidores de Mago de Oz y del Metal estatal y internacional !
 Y a todos eso que se preocupan en subir sus Tabs ! ;D
http://www.heroesdepacotilla.com/
Tap to rate this tab
# A B C D E F G H I J K L M N O P Q R S T U V W X Y Z