Song name
# A B C D E F G H I J K L M N O P Q R S T U V W X Y Z

Ty Segall - Pretty Baby Youre So Ugly tab

-------------------------------------------------------------------------------
                             PRETTY BABY (YOU'RE SO UGLY) - Ty Segall
-------------------------------------------------------------------------------
Tabbed by: Paul Dunne
E-mail: paulhdd@gmail.com

Tuning: Standard

e|--------------------------------------|
B|-----------0-------------------0------|
G|--9--------0-9--------9--------0-9----|
D|--9--------0-9--------9--------0-9----|
A|--7--------0-7--------7--------0-7----|
E|--------------------------------------|

e|-----------------------------------|
B|-----------------------------------|
G|--1--1-1-6-6-6-6-7-7-7-6-----------|
D|--2--2-2-7-7-7-7-7-7-7-7--101010---| x4
A|--2--2-2-7-7-7-7-5-5-5-7--101010---|
E|--0--0-0-5-5-5-5-------5--8-8-8----|

e|--------------------------------------|
B|-----------0-------------------0------|
G|--9--------0-9--------9--------0-9----|
D|--9--------0-9--------9--------0-9----|
A|--7--------0-7--------7--------0-7----|
E|--------------------------------------|

e|-----------------------------------|
B|-----------------------------------|
G|--1--1-1-6-6-6-6-7-7-7-6-----------|
D|--2--2-2-7-7-7-7-7-7-7-7--101010---| x4
A|--2--2-2-7-7-7-7-5-5-5-7--101010---|
E|--0--0-0-5-5-5-5-------5--8-8-8----|

e|-----------------------------------------------------------|
B|-----------------------------------------------------------|
G|--9-------------9-------------9-------------9--------------|
D|--9-x-x-x-x-x-x-9-x-x-x-x-x-x-9-x-x-x-x-x-x-9-x-x-x-x-x-x--|
A|--7-x-x-x-x-x-x-7-x-x-x-x-x-x-7-x-x-x-x-x-x-7-x-x-x-x-x-x--|
E|--0-x-x-x-x-x-0-0-x-x-x-x-x-0-0-x-x-x-x-x-0-0-x-x-x-x-x-x--|

e|----------------------------------------------------------|
B|----------------------------------------------------------|
G|--9-------------9-------------9-x-x-9-x-x-9-x-9-x-9-x-9---|
D|--9-x-x-x-x-x-x-9-x-x-x-x-x-x-9-x-x-9-x-x-9-x-9-x-9-x-9---|
A|--7-x-x-x-x-x-x-7-x-x-x-x-x-x-7-x-x-7-x-x-7-x-7-x-7-x-7---|
E|--0-x-x-x-x-x-0-0-x-x-x-x-x-0-0---------------------------|


e|-----------------------------------|
B|-----------------------------------|
G|--1--1-1-6-6-6-6-7-7-7-6-----------|
D|--2--2-2-7-7-7-7-7-7-7-7--101010---| x4
A|--2--2-2-7-7-7-7-5-5-5-7--101010---|
E|--0--0-0-5-5-5-5-------5--8-8-8----|

End on E


************************************

| /   slide up
| \   slide down
| h   hammer-on
| p   pull-off
| ~   vibrato
| +   harmonic
| x   Mute note
| b   Bend
| pb  Pre-bend
| br  Bend release
| pbr Pre-bend release
| brb Bend release bend

************************************
Tap to rate this tab
# A B C D E F G H I J K L M N O P Q R S T U V W X Y Z