Song name
# A B C D E F G H I J K L M N O P Q R S T U V W X Y Z

Ty Segall - Standing At The Station tab

This is my First Ever tab and im not sure if its correct but it sounds right
if you find any mistakes feel free to leave a comment and don'f forget to rate



E------2h3p2h3---------8h9p8h9----------------------------|  Intro
B---------------------------------------------------------|
G---------------------------------------------------------| X3
D--5--------------10--------------------------------------|
A--5--------------10--------------------------------------|
E--3--------------8---------------------------------------|

E---------------------------------------------------------|
B---------------------------------------------------------|
G---7-7-7-7-6-6-5-5---------------------------------------|
D---8-8-8-8-7-7-6-6---------------------------------------|
A---8-8-8-8-7-7-6-6---------------------------------------|
E---6-6-6-6-5-5-4-4---------------------------------------|


E---------------------------------------------------------|
B---------------------------------------------------------|
G-4--4-4-7-7-9--9---12-12---------------------------------|
D-5--5-5-8-8-10-10--13-13---------------------------------| X8
A-5--5-5-8-8-10-10--13-13---------------------------------|
E-3--3-3-6-6-8--8---11-11---------------------------------|

E---------------------------------------------------------|
B---------------------------------------------------------|
G---7-7-7-7-6-6-5-5---------------------------------------|
D---8-8-8-8-7-7-6-6---------------------------------------|
A---8-8-8-8-7-7-6-6---------------------------------------|
E---6-6-6-6-5-5-4-4---------------------------------------|

E---------------------------------------------------------|
B---------------------------------------------------------|
G-4--4-4-7-7-9--9---12-12---------------------------------|
D-5--5-5-8-8-10-10--13-13---------------------------------| X4
A-5--5-5-8-8-10-10--13-13---------------------------------|
E-3--3-3-6-6-8--8---11-11---------------------------------|

E---------------------------------------------------------|
B---------------------------------------------------------|
G---7-7-7-7-6-6-5-5---------------------------------------|
D---8-8-8-8-7-7-6-6---------------------------------------|
A---8-8-8-8-7-7-6-6---------------------------------------|
E---6-6-6-6-5-5-4-4---------------------------------------|


E---------------------------------------------------------|
B---------------------------------------------------------|
G-4444-7777--12-12-12-12-9--9--9--9-----------------------| X4
D-5555-8888--13-13-13-13-10-10-10-10----------------------|
A-5555-8888--13-13-13-13-10-10-10-10----------------------|
E-3333-6666--11-11-11-11-8--8--8--8-----------------------|

E---------------------------------------------------------|
B---------------------------------------------------------|
G---7-7-7-7-666-5555--------------------------------------|
D---8-8-8-8-777-6666--------------------------------------|
A---8-8-8-8-777-6666--------------------------------------|
E---6-6-6-6-555-4444--------------------------------------|

E---------------------------------------------------------|
B---------------------------------------------------------|
G-4--4-4-7-7-9--9---12-12---------------------------------|
D-5--5-5-8-8-10-10--13-13---------------------------------| X8
A-5--5-5-8-8-10-10--13-13---------------------------------|
E-3--3-3-6-6-8--8---11-11---------------------------------|


E---------------------------------------------------------|
B---------------------------------------------------------|
G---7-7-7-7-6-6-5-5---------------------------------------|
D---8-8-8-8-7-7-6-6---------------------------------------|
A---8-8-8-8-7-7-6-6---------------------------------------|
E---6-6-6-6-5-5-4-4---------------------------------------|

E---------------------------------------------------------|
B---------------------------------------------------------|
G-4444-7777--12-12-12-12-9--9--9--9-----------------------| X4
D-5555-8888--13-13-13-13-10-10-10-10----------------------|
A-5555-8888--13-13-13-13-10-10-10-10----------------------|
E-3333-6666--11-11-11-11-8--8--8--8-----------------------|


E------2h3p2h3---------8h9p8h9----------------------------|
B---------------------------------------------------------| slight  variation
G---------------------------------------------------------| X3
D--5--------------10--------------------------------------|
A--5--------------10--------------------------------------|
E--3--------------8---------------------------------------|


E---------------------------------------------------------|
B---------------------------------------------------------|
G---7-7-7-7-666-5555-4------------------------------------|
D---8-8-8-8-777-6666-5------------------------------------|
A---8-8-8-8-777-6666-5------------------------------------|
E---6-6-6-6-555-4444-3------------------------------------|
Tap to rate this tab
# A B C D E F G H I J K L M N O P Q R S T U V W X Y Z