Song name
# A B C D E F G H I J K L M N O P Q R S T U V W X Y Z

Ty Segall - I Bought My Eyes tab

-------------------------------------------------------------------------------
                                                I BOUGHT MY EYES - Ty Segall
-------------------------------------------------------------------------------


Fig. 1

   Bb       C       D
e|---------------------------------------|
B|------3-3-----3-3-----3-3-----3-3------|
G|------2-2-----2-2-----2-2-----2-2------|
D|------------------0-0-----0-0----------|  
A|--1-1-----3-3--------------------------|
E|---------------------------------------|

Fig. 2

   Bb       C       F       G
e|-----------------------------------------------------------|
B|------3-3-----3-3-----3-3-----3-3-----3-3----3-3-----3-3---|
G|------2-2-----2-2-----2-2-----2-2-----2-2----2-2-----2-2---|
D|-----------------------------------------------------------|
A|--1-1-----3-3----------------------------------------------|
E|------------------1-1-----3-3-----3-3-----3-3----3-3-------|


INTRO
Fig. 1  x2
Fig. 2  x1

VERSE 1

Bb  C     D       Bb  C     D           <- Fig. 1
  I was a rich man, I was a poor man,
Bb    C        F     G                  <- Fig. 2
  but now I'll never know 
Bb        C       D                     <- Fig. 1
  They're ringing surgeons,
Bb   C              D                   <- Fig. 1
  my eyes have been worthless
Bb    C        F     G                  <- Fig. 2
  And now I'll never see you
Bb   C   D                              <- Fig. 1
huh, uh, uh
Bb   C   D                              <- Fig. 1
huh, uh, uh
Bb   C   F   G                          <- Fig. 2
huh, uh, uh  uuuh


POWER-CHORDS!!

Bb  C   D    x2  
Bb  C   D  F  A

VERSE 2 

Bb    C        D     Bb   C          D
  I'm bringing riches, my eyes still worthless
Bb    C        D        F                    A
  I still look back and see, what life could be
Bb    C      D    Bb    C      D
  She was my lover  she was my other
Bb    C        D     F                 A  
  But now i'll never know, how we will grow

Bb   C   D                              
huh, uh, uh
Bb   C   D                              
huh, uh, uh
Bb   C   D   F    A                     
huh, uh, uuuuuuh  uuuh


Bb   C   D                              
huh, uh, uh
Bb   C   D                              
huh, uh, uh
Bb   C   D   F    A                     
huh, uh, uuuuuuh  uuuh


SOLO 

guitar 1
e|---------------------------------|
B|---------------------------------|
G|---77-6-7--333-2-----------------|
D|------------------444-3-4-3-4----|   
A|---------------------------------|
E|---------------------------------|


guitar 2 (may not be entirely correct)
e|---------------------------------|
B|---------------------------------|
G|---------------------------------|
D|---88-7-8--444-3-----------------|
A|------------------555-4-5-4-5----|
E|---------------------------------|

the two guitar parts above are played in unison 3 times, then:


e|--------------------|
B|--------------------|
G|---2-----2-4--6-----|
D|--------------------|
A|--------------------|
E|--------------------|


again the unison part, then weirdness ensues...
somewhere in the end the unison part again, until you want to stop
Tap to rate this tab
# A B C D E F G H I J K L M N O P Q R S T U V W X Y Z