Song name
# A B C D E F G H I J K L M N O P Q R S T U V W X Y Z

Ty Segall - Die Tonite tab

-------------------------------------------------------------------------------
                             DIE TONITE - Ty Segall
-------------------------------------------------------------------------------
Tabbed by: fetusrobot
E-mail: fetusrobot@gmail.com

Tuning: EADGBe

4x4 (-------- = 1 beat; x = beating signalization)

Strumming pattern:

   E                                 C               D

e|-0-------0---0-------0---0-------|-0-------0-------2---2---2-------|
B|-0-------0---0-------0---0---x---|-1-------1---x---3---3---3---x---|
G|-1-------1---1-------1---1---x---|-0-------0---x---2---2---2---x---|
D|-2-------2---2-------2---2---x---|-2-------2---x---0---0---0---x---|
A|-2-------2---2-------2---2---x---|-3-------3---x---------------x---|
E|-0-------0---0-------0---0-------|---------------------------------|
   x       x       x       x         x       x       x       x

   E                                 G               A

e|-0-------0---0-------0---0-------|-3-------3-------0---0---0-------|
B|-0-------0---0-------0---0---x---|-3-------3---x---2---2---2---x---|
G|-1-------1---1-------1---1---x---|-0-------0---x---2---2---2---x---|
D|-2-------2---2-------2---2---x---|-0-------0---x---2---2---2---x---|
A|-2-------2---2-------2---2---x---|-2-------2---x---0---0---0---x---|
E|-0-------0---0-------0---0-------|-3-------3-----------------------|
   x       x       x       x         x       x       x       x



                   +-------------------------------+
                   |                               |
                   |   E            C      D       |
                   |   You're gonna die tonite     |
                   |                               |
                   |   E            C      D       |
                   |   You're gonna die tonite     |
                   |                               |
                   |   E         G        A        |
                   |   Your mama wants to know     |
                   |                               |
                   |   E                G      A   |
                   |   Where you're so (????????)  |
                   |                               |
                   |             [...]             |
                   |                               |
                   |   G      A          E         |
                   |   If you wanna stay safe      |
                   |                               |
                   |   G      A          E         |
                   |   If you wanna stay safe      |
                   |                               |
                   +-------------------------------+

play E for a whole beat then start singing at the half-beat part, at the second beat.
same thing for G on "if you wanna stay safe". each chord is always strummed in the same
pattern invariably i think. also sorry about the lyrics like if i could id paste the 
whole thing here but like, ty's accent + ty's fanbase's total apathy like... yeah you get 
the idea.
Tap to rate this tab
# A B C D E F G H I J K L M N O P Q R S T U V W X Y Z