Song name
# A B C D E F G H I J K L M N O P Q R S T U V W X Y Z

Ty Segall - Cents tab

                              (Don't know about the lyrics, just found them on the internet)
Verse:
 Listen to the haircut, oh, could I ever set now?
Shake another place, dear, see if you can see it there
                     C  G  D  A
e|-------------------33-33-55-55-----------|
B|-------------------55-33-77-55-----------|
G|-------------------55-44-77-66-----------|
D|-------------------55-55-77-77-----------|
A|--2-2-2-2-2-2-2-2--33-55-55-77-----------|
E|--0-0-3-0-0-0-3-0--33-33-55-55-----------|

Oh, don't you know I'm away of here
Oh, don't you know I'm away of here
      B      A    G
e|-7-7-7-7-5-5-5-3-3-3------------------------------------|
B|-7-7-7-7-5-5-5-3-3-3------------------------------------|
G|-8-8-8-8-6-6-6-4-4-4------------------------------------|
D|-9-9-9-9-7-7-7-5-5-5------------------------------------|
A|-9-9-9-9-7-7-7-5-5-5-2-2-2-2-2-2-2-2-2-2-2-2-2-2-2-2----|
E|-7-7-7-7-5-5-5-3-3-3-0-0-3-0-0-0-3-0-0-0-3-0-0-0-3-0----|
(Repeat B - A - G chords once more and end on Em)
(Start second verse with C - G - D -A riff and then repeat)

Bridge:
      Db     B F# D A D A       Ab
e|-4-4-4-4-4/2-2-5-5-5-5-4-4-4-4-4-4-4-|
B|-6-6-6-6-6/4-2-7-5-7-5-4-4-4-4-4-4-4-|
G|-6-6-6-6-6/4-3-7-6-7-6-5-5-5-5-5-5-5-|
D|-6-6-6-6-6/4-4-7-7-7-7-6-6-6-6-6-6-6-|
A|-4-4-4-4-4/2-4-5-7-5-7-6-6-6-6-6-6-6-|
E|-4-4-4-4-4/2-2-5-5-5-5-4-4-4-4-4-4-4-|

Then just repeat C - G - D -A riff and verse until the end and end on Em
Tap to rate this tab
 
# A B C D E F G H I J K L M N O P Q R S T U V W X Y Z