Song name
# A B C D E F G H I J K L M N O P Q R S T U V W X Y Z

Tycho - A Walk tab

There are 2 ways to play this song, if you want it to be in key.  You can play in drop 
D, or with all strings 2 steps down.  Here's each, each about as easy to play as the other....

DROP D:

|-----------------|-----------------|
|-----------------|-----------------|
|-----------------|-----6-9-----6-9-|
|-------------4-7-|-----------------|
|-----2-5---------|-----------------|
|-4-------7-------|-0-------7-------|

|-----------------|-----------------|
|-----------------|-----------------|
|-----------------|-----------------|
|-----------------|-----------------|
|-----2-5-0---2-5-|-----2-5-0---2-5-|
|-4---------------|-4---------------|



D TUNING (all strings 2 steps down):
|-------------------|-------------------|
|-------------------|-------------------|
|-------------------|-----8-11-----8-11-|
|-------------6-9---|-------------------|
|-----4-7-----------|-------------------|
|-4-------7---------|-0--------7--------|

|-------------------|-------------------|
|-------------------|-------------------|
|-------------------|-------------------|
|-------------------|-------------------|
|-----4-7-----4-7---|-----4-7-----4-7---|
|-4-------7---------|-4-------7---------|

tabbed by:  http://www.youtube.com/officialcloudymusic
Tap to rate this tab
# A B C D E F G H I J K L M N O P Q R S T U V W X Y Z