Song name
# A B C D E F G H I J K L M N O P Q R S T U V W X Y Z

Tycho - Pbs tab

Riff

e|-------------------------------------------------------------------|
B|-------------------------------------------------------------------|
G|-10-9-----------10--9-------9------9-10-12--10-9------14-----------|
D|------10--------------10--------10---------------9-----------------|
A|---------(12)------------------------------------------------------|
E|-------------------------------------------------------------------|

e|-------------------------------------------------------------------|
B|-------------------------------------------------------------------|
G|-12-10---------10--9-------9------9-10-12--10-9------12------------|
D|--------------------10--------10---------------9-------------------|
A|-------------------------------------------------------------------|
E|-------------------------------------------------------------------|

e|-------------------------------------------------------------------|
B|-------------------------------------------------------------------|
G|-14-12---------10--9-------9------9-10-12--10-9------12------------|
D|--------------------10--------10---------------9-------------------|
A|-------------------------------------------------------------------|
E|-------------------------------------------------------------------|
Tap to rate this tab
# A B C D E F G H I J K L M N O P Q R S T U V W X Y Z