Song name
# A B C D E F G H I J K L M N O P Q R S T U V W X Y Z

Tye Tribbett - Son Of Man Bless The Lord tab

Resubmitting to add website: http://www.tyetribbett.com/

This is my first real tab, I am certain the note at the end of each phrase
is F#m7, but it may be played differently on the song, its a bit too fast
for me to tell, but the way it's tabbed sounds all good, if you have any
suggestions or corrections, comment or email me @ teff@tyc.co.nz.

Enjoy!

e|----------------------------------------------------------------------|
B|----------------------------------------------------------------------|
G|----------------------------------------------------------------------|
D|-------------------------------------6-6-----4-4-------6-6-------6-6--|
A|-----6-6-----4-4-----6-6-----6-6-7-7-----6-6-----4-4-4-----4-4-4------|
E|-4-4-----6-6-----7-7-----7-7------------------------------------------|
 
   Holy sanction lord   Oooooh                    (        F#m7      )
e|----------------------------------------------------------2------------|
B|----------------------------------------------------------2------------|
G|----------------------------------------------------------2------------|
D|----------------------------------------------------2---2---2----------|
A|-----6-6-----4-4-----6-6-----6-6-----4-4----4-4---4---4-------4--------|
E|-4-4-----6-6-----7-7-----7-7-----6-6-----6-6----2---------------2------|


Verse:

  Son      of      man... Son         of   righteousness... King of the...

e|------------------------------------------------------------------|
B|------------------------------------------------------------------|
G|------------------------------------------------------------------|
D|-------------------------------------6-6-----4-4-----6-6-----6-6--|
A|-----6-6-----4-4-----6-6-----6-6-7-7-----6-6-----4-4-----4-4------|
E|-4-4-----6-6-----7-7-----7-7--------------------------------------|
 
...earth   for     sinners        slain
e|----------------------------------------------------------2------------|
B|----------------------------------------------------------2------------|
G|----------------------------------------------------------2------------|
D|----------------------------------------------------2---2---2----------|
A|-----6-6-----4-4-----6-6-----6-6-----4-4----4-4---4---4-------4--------|
E|-4-4-----6-6-----7-7-----7-7-----6-6-----6-6----2---------------2------|

Verse 2:

   I       Was     lost... In     dark   ness   found... To ransom my       

e|------------------------------------------------------------------|
B|------------------------------------------------------------------|
G|------------------------------------------------------------------|
D|-------------------------------------6-6-----4-4-----6-6-----6-6--|
A|-----6-6-----4-4-----6-6-----6-6-7-7-----6-6-----4-4-----4-4------|
E|-4-4-----6-6-----7-7-----7-7--------------------------------------|
 
...heart   and     I       Will    sing....      (F#m7) (4 lots of three)
e|------------------------------------------------2-2-2----------|
B|------------------------------------------------2-2-2----------|
G|------------------------------------------------2-2-2----------|
D|------------------------------------------------2-2-2----------|
A|-----6-6-----4-4-----6-6-----6-6-----4-4----4-4-4-4-4----------|
E|-4-4-----6-6-----7-7-----7-7-----6-6-----6-6----2-2-2----------|

Tap to rate this tab
 
# A B C D E F G H I J K L M N O P Q R S T U V W X Y Z