Song name
# A B C D E F G H I J K L M N O P Q R S T U V W X Y Z

Tye Tribbett - Valerij chords

Highlighted       Show chord diagrams
Diesen Song habe ich nur für eine besondere Person geschrieben die mir nicht nur gezeigt 
hat wie viel Spaß man haben kann sondern auch wie gut es ist einen besten Freund zu haben.

G : 320003
D : 000232
C : 032010


G               D                       C                     D
V das steht für Verständnisvoll das ist das was ich so an dir mag

G                 D              C            D
Ich rede gern mit dir und lausch gern' was du sagst

G                  D              C             D
Du bist zwar manchmal nicht so Anmutig wie eine Garzelle

G                  D               C
aber dafür für jeden immer zur Stelle

G                   D               C                   D
Wenn man mit dir nicht den meisten Spaß haben kann mit wem dann ?

G                        D            C               D
Bei E ist mir nicht viel eingefallen das geb ich ganz ehrlich zu

     G     D      G    D
aber wart-ich ,  wart-ich..

  G                D      C    D
..doch du bist auf jeden Fall einzigartig

G         D         C
Das R das rollt von ganz allein

D
ohne das würdest du nicht der selbe sein


----------------------SOLO--------------------------

G                    D               C            D
Die meisten schlauen Sachen die sind dir niemals fremd

G            D               C               D
denn ich weiß genau Valerij ist intelligent

G            D              C          D
Zum Schluss kommt noch der Buchstabe J

G            D         C       D
Das nachdenken ging dabei Flott

G  D    C     D
Der steht für Ja

G             D            C             D
Wie du sicher gemerkt hast ist der Titel Valerij

G             D             C            D
Was soll ich großartig dazu sagen dein Name ist reine Poesie


Solo :


E :------------------------------------------------------------|
B :---7--5--------------7--5-----------------------------------|
G :---------6--2--------------6--2--4--------2X----------------|
D :------------------------------------------------------------|
A :------------------------------------------------------------|
E :------------------------------------------------------------|



E :------------------------------------------------------------|
B :---7--5--------------7--5-----------------------------------|
G :---------6--7--------------6--7--9---------2X---------------|
D :------------------------------------------------------------|
A :------------------------------------------------------------|
E :------------------------------------------------------------|
Tap to rate this tab
# A B C D E F G H I J K L M N O P Q R S T U V W X Y Z