Song name
# A B C D E F G H I J K L M N O P Q R S T U V W X Y Z

Tye Tribbett - Free To Worship tab

Guitar/Bass Intro Riff:
e|--------------------------------------|
B|--------------------------------------|
G|--------------------------------------|
D|----5-----------------5-------------5~|
A|7-7---7-5-0-------7-7---7-5-----5h7---|
E|------------3-0-------------5h7-------|

e|--------------------------------------|
B|--------------------------------------|
G|------------------------------x7-x7---|
D|----5------------------5------x7-x7---|
A|7-7---7-5-0--------7-7---7-5--x4-x5---|
E|------------3-0-----------------------|
Tap to rate this tab
# A B C D E F G H I J K L M N O P Q R S T U V W X Y Z