Song name
# A B C D E F G H I J K L M N O P Q R S T U V W X Y Z

Tygers Of Pan Tang - Dont Stop By tab

-----------------------------------------------------------------------------

                  Don't Stop By - Tygers of Pan Tang (GUITAR)

-----------------------------------------------------------------------------
Tabbed by: Scotto10

Tuning: Standard

=============================================================================


Guitar 1



     PM PM PM PM PM PM PM PM    PM PM PM PM PM PM PM PM  
     E  E  E  E  E  E  E  E     E  E  E  E  E  E  E  E   
E||--------------------------|--------------------------|
B||--8--8--8--8--8--8--8--8--|--5--5--5--5--5--5--5--5--|
G||--9--9--9--9--9--9--9--9--|--5--5--5--5--5--5--5--5--|
D||--------------------------|--------------------------|
A||--------------------------|--------------------------|
E||--------------------------|--------------------------|


  PM PM PM PM PM PM PM PM    PM PM PM PM PM PM PM PM  
  E  E  E  E  E  E  E  E     E  E  E  E  E  E  E  E   
--------------------------|--------------------------|
--7--7--7--7--7--7--7--7--|--8--8--8--7--7--7--7--7--|
--7--7--7--7--7--7--7--7--|--9--9--9--7--7--7--7--7--|
--------------------------|--------------------------|
--------------------------|--------------------------|
--------------------------|--------------------------|


  PM PM PM PM PM PM PM PM    PM PM PM PM PM PM PM PM  
  E  E  E  E  E  E  E  E     E  E  E  E  E  E  E  E   
--------------------------|--------------------------|
--8--8--8--8--8--8--8--8--|--5--5--5--5--5--5--5--5--|
--9--9--9--9--9--9--9--9--|--5--5--5--5--5--5--5--5--|
--------------------------|--------------------------|
--------------------------|--------------------------|
--------------------------|--------------------------|


  PM PM PM PM PM PM PM PM    PM PM PM PM PM PM PM PM  
  E  E  E  E  E  E  E  E     E  E  E  E  E  E  E  E   
--------------------------|--------------------------|
--7--7--7--7--7--7--7--7--|--8--8--8--7--7--7--7--7--|
--7--7--7--7--7--7--7--7--|--9--9--9--7--7--7--7--7--|
--------------------------|--------------------------|
--------------------------|--------------------------|
--------------------------|--------------------------|


  PM PM PM PM PM PM PM PM    PM PM PM PM PM PM PM PM  
  E  E  E  E  E  E  E  E     E  E  E  E  E  E  E  E   
--------------------------|--------------------------|
--8--8--8--8--8--8--8--8--|--5--5--5--5--5--5--5--5--|
--9--9--9--9--9--9--9--9--|--5--5--5--5--5--5--5--5--|
--------------------------|--------------------------|
--------------------------|--------------------------|
--------------------------|--------------------------|


  PM PM PM PM PM PM PM PM    PM PM PM PM PM PM PM PM  
  E  E  E  E  E  E  E  E     E  E  E  E  E  E  E  E   
--------------------------|--------------------------|
--7--7--7--7--7--7--7--7--|--8--8--8--7--7--7--7--7--|
--7--7--7--7--7--7--7--7--|--9--9--9--7--7--7--7--7--|
--------------------------|--------------------------|
--------------------------|--------------------------|
--------------------------|--------------------------|


  PM PM PM PM PM PM PM PM    PM PM PM PM PM PM PM PM  
  E  E  E  E  E  E  E  E     E  E  E  E  E  E  E  E   
--------------------------|--------------------------|
--8--8--8--8--8--8--8--8--|--5--5--5--5--5--5--5--5--|
--9--9--9--9--9--9--9--9--|--5--5--5--5--5--5--5--5--|
--------------------------|--------------------------|
--------------------------|--------------------------|
--------------------------|--------------------------|


  PM PM PM PM PM PM PM PM    PM PM PM PM PM PM PM PM  
  E  E  E  E  E  E  E  E     E  E  E  E  E  E  E  E   
--------------------------|--------------------------|
--7--7--7--7--7--7--7--7--|--8--8--8--7--7--7--7--7--|
--7--7--7--7--7--7--7--7--|--9--9--9--7--7--7--7--7--|
--------------------------|--------------------------|
--------------------------|--------------------------|
--------------------------|--------------------------|


  Q    E  S S E  E  E  E     Q.     S S Q    Q       Q    E  S S E  E  E  E   
--------------------------|-----------------------|--------------------------|
--------------------------|-----------------------|--------------------------|
--9----9--9-9-9--5-----7--|--L--------------------|--9----9--9-9-9--5-----7--|
--9----9--9-9-9--5-----7--|--L------7-7-7----5----|--9----9--9-9-9--5-----7--|
--7----7--7-7-7--3-----5--|--L------7-7-7----5----|--7----7--7-7-7--3-----5--|
--0-----------------------|---------5-5-5----3----|--0-----------------------|


  Q.     S S Q    Q       Q    E  S S E  E  E  E     Q.     S S Q    Q     
-----------------------|--------------------------|-----------------------|
-----------------------|--------------------------|-----------------------|
--L--------------------|--9----9--9-9-9--5-----7--|--L--------------------|
--L------7-7-7----5----|--9----9--9-9-9--5-----7--|--L------7-7-7----5----|
--L------7-7-7----5----|--7----7--7-7-7--3-----5--|--L------7-7-7----5----|
---------5-5-5----3----|--0-----------------------|---------5-5-5----3----|


  Q    E  S S E  E  E  E     Q.     S S Q    Q       Q    E  S S E  E  E  E   
--------------------------|-----------------------|--------------------------|
--------------------------|-----------------------|--------------------------|
--9----9--9-9-9--5-----7--|--L--------------------|--9----9--9-9-9--5-----7--|
--9----9--9-9-9--5-----7--|--L------7-7-7----5----|--9----9--9-9-9--5-----7--|
--7----7--7-7-7--3-----5--|--L------7-7-7----5----|--7----7--7-7-7--3-----5--|
--0-----------------------|---------5-5-5----3----|--0-----------------------|


  Q.     S S Q    Q       Q    E  S S E  E  E  E     Q.     S S Q    Q     
-----------------------|--------------------------|-----------------------|
-----------------------|--------------------------|-----------------------|
--L--------------------|--9----9--9-9-9--5-----7--|--L--------------------|
--L------7-7-7----5----|--9----9--9-9-9--5-----7--|--L------7-7-7----5----|
--L------7-7-7----5----|--7----7--7-7-7--3-----5--|--L------7-7-7----5----|
---------5-5-5----3----|--0-----------------------|---------5-5-5----3----|


  Q    E  S S E  E  E  E     Q.     S S Q    Q       Q    E  S S E  E  E  E   
--------------------------|-----------------------|--------------------------|
--------------------------|-----------------------|--------------------------|
--9----9--9-9-9--5-----7--|--L--------------------|--9----9--9-9-9--5-----7--|
--9----9--9-9-9--5-----7--|--L------7-7-7----5----|--9----9--9-9-9--5-----7--|
--7----7--7-7-7--3-----5--|--L------7-7-7----5----|--7----7--7-7-7--3-----5--|
--0-----------------------|---------5-5-5----3----|--0-----------------------|


  Q.     S S Q    Q       E  E  E  E  E  E  E  E     E  E  E  E  E  E  E  E   
-----------------------|--------------0-----------|--------------2-----------|
-----------------------|-----------0-----0--------|-----------3-----3--------|
--L--------------------|--------5-----------5-----|--------2-----------2-----|
--L------7-7-7----5----|-----5-----------------5--|-----4-----------------4--|
--L------7-7-7----5----|--3-----------------------|--2-----------------------|
---------5-5-5----3----|--------------------------|--------------------------|


  E  E  E  E  E  E  E  E     E  E  E  E  E  E  E  E   
--------------0-----------|--------------0-----------|
-----------0-----0--------|-----------0-----0--------|
--------2-----------2-----|--------0-----------0-----|
-----2-----------------2--|-----2-----------------2--|
--0-----------------------|--------------------------|
--------------------------|--0-----------------------|


                                                       PM PM PM PM PM PM PM PM  
  E  E  E  E  E  E  E  E     E  E  E  E  E  E  Q       E  E  E  E  E  E  E  E   
--------------0-----------|--------------0----------|--------------------------|
-----------0-----0--------|--------3-----------3----|--------------------------|
--------5-----------5-----|-----2-----2-----4-------|--------------------------|
-----5-----------------5--|--0----------------------|--9--9--9--9--9--9--9--9--|
--3-----------------------|-------------------------|--7--7--7--7--7--7--7--7--|
--------------------------|-------------------------|--0--0--0--0--0--0--0--0--|


  PM PM PM PM PM PM PM PM                                                     
  E  E  E  E  E  E  E  E     Q    E  S S E  E  E  E     Q.     S S Q    Q     
--------------------------|--------------------------|-----------------------|
--------------------------|--------------------------|-----------------------|
--------------------------|--9----9--9-9-9--5-----7--|--L--------------------|
--9--9--9--9--9--9--9--9--|--9----9--9-9-9--5-----7--|--L------7-7-7----5----|
--7--7--7--7--7--7--7--7--|--7----7--7-7-7--3-----5--|--L------7-7-7----5----|
--0--0--0--0--0--0--0--0--|--0-----------------------|---------5-5-5----3----|


  Q    E  S S E  E  E  E     Q.     S S Q    Q       Q    E  S S E  E  E  E   
--------------------------|-----------------------|--------------------------|
--------------------------|-----------------------|--------------------------|
--9----9--9-9-9--5-----7--|--L--------------------|--9----9--9-9-9--5-----7--|
--9----9--9-9-9--5-----7--|--L------7-7-7----5----|--9----9--9-9-9--5-----7--|
--7----7--7-7-7--3-----5--|--L------7-7-7----5----|--7----7--7-7-7--3-----5--|
--0-----------------------|---------5-5-5----3----|--0-----------------------|


  Q.     S S Q    Q       Q    E  S S E  E  E  E     Q.     S S Q    Q     
-----------------------|--------------------------|-----------------------|
-----------------------|--------------------------|-----------------------|
--L--------------------|--9----9--9-9-9--5-----7--|--L--------------------|
--L------7-7-7----5----|--9----9--9-9-9--5-----7--|--L------7-7-7----5----|
--L------7-7-7----5----|--7----7--7-7-7--3-----5--|--L------7-7-7----5----|
---------5-5-5----3----|--0-----------------------|---------5-5-5----3----|


  Q    E  S S E  E  E  E     Q.     S S Q    Q       Q    E  S S E  E  E  E   
--------------------------|-----------------------|--------------------------|
--------------------------|-----------------------|--------------------------|
--9----9--9-9-9--5-----7--|--L--------------------|--9----9--9-9-9--5-----7--|
--9----9--9-9-9--5-----7--|--L------7-7-7----5----|--9----9--9-9-9--5-----7--|
--7----7--7-7-7--3-----5--|--L------7-7-7----5----|--7----7--7-7-7--3-----5--|
--0-----------------------|---------5-5-5----3----|--0-----------------------|


  Q.     S S Q    Q       Q    E  S S E  E  E  E     Q.     S S Q    Q     
-----------------------|--------------------------|-----------------------|
-----------------------|--------------------------|-----------------------|
--L--------------------|--9----9--9-9-9--5-----7--|--L--------------------|
--L------7-7-7----5----|--9----9--9-9-9--5-----7--|--L------7-7-7----5----|
--L------7-7-7----5----|--7----7--7-7-7--3-----5--|--L------7-7-7----5----|
---------5-5-5----3----|--0-----------------------|---------5-5-5----3----|


  Q    E  S S E  E  E  E     Q.     S S Q    Q       E  E  E  E  E  E  E  E   
--------------------------|-----------------------|--------------0-----------|
--------------------------|-----------------------|-----------0-----0--------|
--9----9--9-9-9--5-----7--|--L--------------------|--------5-----------5-----|
--9----9--9-9-9--5-----7--|--L------7-7-7----5----|-----5-----------------5--|
--7----7--7-7-7--3-----5--|--L------7-7-7----5----|--3-----------------------|
--0-----------------------|---------5-5-5----3----|--------------------------|


  E  E  E  E  E  E  E  E     E  E  E  E  E  E  E  E   
--------------2-----------|--------------0-----------|
-----------3-----3--------|-----------0-----0--------|
--------2-----------2-----|--------2-----------2-----|
-----4-----------------4--|-----2-----------------2--|
--2-----------------------|--0-----------------------|
--------------------------|--------------------------|


  E  E  E  E  E  E  E  E     E  E  E  E  E  E  E  E     E  E  E  E  E  E  Q     
--------------0-----------|--------------0-----------|--------------0----------|
-----------0-----0--------|-----------0-----0--------|--------3-----------3----|
--------0-----------0-----|--------5-----------5-----|-----2-----2-----4-------|
-----2-----------------2--|-----5-----------------5--|--0----------------------|
--------------------------|--3-----------------------|-------------------------|
--0-----------------------|--------------------------|-------------------------|


  PM PM PM PM PM PM PM PM    PM PM PM PM PM PM PM PM  
  E  E  E  E  E  E  E  E     E  E  E  E  E  E  E  E   
--------------------------|--------------------------|
--------------------------|--------------------------|
--------------------------|--------------------------|
--9--9--9--9--9--9--9--9--|--9--9--9--9--9--9--9--9--|
--7--7--7--7--7--7--7--7--|--7--7--7--7--7--7--7--7--|
--0--0--0--0--0--0--0--0--|--0--0--0--0--0--0--0--0--|


  PM PM PM PM PM PM PM PM    PM PM PM PM PM PM PM PM  
  E  E  E  E  E  E  E  E     E  E  E  E  E  E  E  E   
--------------------------|--------------------------|
--8--8--8--8--8--8--8--8--|--5--5--5--5--5--5--5--5--|
--9--9--9--9--9--9--9--9--|--5--5--5--5--5--5--5--5--|
--------------------------|--------------------------|
--------------------------|--------------------------|
--------------------------|--------------------------|


  PM PM PM PM PM PM PM PM    PM PM PM PM PM PM PM PM  
  E  E  E  E  E  E  E  E     E  E  E  E  E  E  E  E   
--------------------------|--------------------------|
--7--7--7--7--7--7--7--7--|--8--8--8--7--7--7--7--7--|
--7--7--7--7--7--7--7--7--|--9--9--9--7--7--7--7--7--|
--------------------------|--------------------------|
--------------------------|--------------------------|
--------------------------|--------------------------|


  PM PM PM PM PM PM PM PM    PM PM PM PM PM PM PM PM  
  E  E  E  E  E  E  E  E     E  E  E  E  E  E  E  E   
--------------------------|--------------------------|
--8--8--8--8--8--8--8--8--|--5--5--5--5--5--5--5--5--|
--9--9--9--9--9--9--9--9--|--5--5--5--5--5--5--5--5--|
--------------------------|--------------------------|
--------------------------|--------------------------|
--------------------------|--------------------------|


  PM PM PM PM PM PM PM PM    PM PM PM PM PM PM PM PM  
  E  E  E  E  E  E  E  E     E  E  E  E  E  E  E  E   
--------------------------|--------------------------|
--7--7--7--7--7--7--7--7--|--8--8--8--7--7--7--7--7--|
--7--7--7--7--7--7--7--7--|--9--9--9--7--7--7--7--7--|
--------------------------|--------------------------|
--------------------------|--------------------------|
--------------------------|--------------------------|


  Q    E  S S E  E  E  E     Q.     S S Q    Q       Q    E  S S E  E  E  E   
--------------------------|-----------------------|--------------------------|
--------------------------|-----------------------|--------------------------|
--9----9--9-9-9--5-----7--|--L--------------------|--9----9--9-9-9--5-----7--|
--9----9--9-9-9--5-----7--|--L------7-7-7----5----|--9----9--9-9-9--5-----7--|
--7----7--7-7-7--3-----5--|--L------7-7-7----5----|--7----7--7-7-7--3-----5--|
--0-----------------------|---------5-5-5----3----|--0-----------------------|


  Q.     S S Q    Q       Q    E  S S E  E  E  E     Q.     S S Q    Q     
-----------------------|--------------------------|-----------------------|
-----------------------|--------------------------|-----------------------|
--L--------------------|--9----9--9-9-9--5-----7--|--L--------------------|
--L------7-7-7----5----|--9----9--9-9-9--5-----7--|--L------7-7-7----5----|
--L------7-7-7----5----|--7----7--7-7-7--3-----5--|--L------7-7-7----5----|
---------5-5-5----3----|--0-----------------------|---------5-5-5----3----|


  Q    E  S S E  E  E  E     Q.     S S Q    Q       Q    E  S S E  E  E  E   
--------------------------|-----------------------|--------------------------|
--------------------------|-----------------------|--------------------------|
--9----9--9-9-9--5-----7--|--L--------------------|--9----9--9-9-9--5-----7--|
--9----9--9-9-9--5-----7--|--L------7-7-7----5----|--9----9--9-9-9--5-----7--|
--7----7--7-7-7--3-----5--|--L------7-7-7----5----|--7----7--7-7-7--3-----5--|
--0-----------------------|---------5-5-5----3----|--0-----------------------|


  Q.     S S Q    Q       Q    E  S S E  E  E  E     Q.     S S Q    Q     
-----------------------|--------------------------|-----------------------|
-----------------------|--------------------------|-----------------------|
--L--------------------|--9----9--9-9-9--5-----7--|--L--------------------|
--L------7-7-7----5----|--9----9--9-9-9--5-----7--|--L------7-7-7----5----|
--L------7-7-7----5----|--7----7--7-7-7--3-----5--|--L------7-7-7----5----|
---------5-5-5----3----|--0-----------------------|---------5-5-5----3----|


  Q    E  S S E  E  E  E     Q.     S S Q    Q       Q    E  S S E  E  E  E   
--------------------------|-----------------------|--------------------------|
--------------------------|-----------------------|--------------------------|
--9----9--9-9-9--5-----7--|--L--------------------|--9----9--9-9-9--5-----7--|
--9----9--9-9-9--5-----7--|--L------7-7-7----5----|--9----9--9-9-9--5-----7--|
--7----7--7-7-7--3-----5--|--L------7-7-7----5----|--7----7--7-7-7--3-----5--|
--0-----------------------|---------5-5-5----3----|--0-----------------------|


  Q.     S S Q    Q       Q    E  S S E  E  E  E     Q.     S S Q    Q     
-----------------------|--------------------------|-----------------------|
-----------------------|--------------------------|-----------------------|
--L--------------------|--9----9--9-9-9--5-----7--|--L--------------------|
--L------7-7-7----5----|--9----9--9-9-9--5-----7--|--L------7-7-7----5----|
--L------7-7-7----5----|--7----7--7-7-7--3-----5--|--L------7-7-7----5----|
---------5-5-5----3----|--0-----------------------|---------5-5-5----3----|


  Q    E  S S E  E  E  E     Q.     S S Q    Q       Q    E  S S E  E  E  E   
--------------------------|-----------------------|--------------------------|
--------------------------|-----------------------|--------------------------|
--9----9--9-9-9--5-----7--|--L--------------------|--9----9--9-9-9--5-----7--|
--9----9--9-9-9--5-----7--|--L------7-7-7----5----|--9----9--9-9-9--5-----7--|
--7----7--7-7-7--3-----5--|--L------7-7-7----5----|--7----7--7-7-7--3-----5--|
--0-----------------------|---------5-5-5----3----|--0-----------------------|


  Q.     S S Q    Q       Q    E  S S E  E  E  E     Q.     S S Q    Q     
-----------------------|--------------------------|-----------------------|
-----------------------|--------------------------|-----------------------|
--L--------------------|--9----9--9-9-9--5-----7--|--L--------------------|
--L------7-7-7----5----|--9----9--9-9-9--5-----7--|--L------7-7-7----5----|
--L------7-7-7----5----|--7----7--7-7-7--3-----5--|--L------7-7-7----5----|
---------5-5-5----3----|--0-----------------------|---------5-5-5----3----|


  Q    E  S S E  E  E  E     Q.     S S Q    Q       Q    E  S S E  E  E  E   
--------------------------|-----------------------|--------------------------|
--------------------------|-----------------------|--------------------------|
--9----9--9-9-9--5-----7--|--L--------------------|--9----9--9-9-9--5-----7--|
--9----9--9-9-9--5-----7--|--L------7-7-7----5----|--9----9--9-9-9--5-----7--|
--7----7--7-7-7--3-----5--|--L------7-7-7----5----|--7----7--7-7-7--3-----5--|
--0-----------------------|---------5-5-5----3----|--0-----------------------|


  Q.     S S Q    Q       Q    E  S S E  E  E  E     Q.     S S Q    Q     
-----------------------|--------------------------|-----------------------|
-----------------------|--------------------------|-----------------------|
--L--------------------|--9----9--9-9-9--5-----7--|--L--------------------|
--L------7-7-7----5----|--9----9--9-9-9--5-----7--|--L------7-7-7----5----|
--L------7-7-7----5----|--7----7--7-7-7--3-----5--|--L------7-7-7----5----|
---------5-5-5----3----|--0-----------------------|---------5-5-5----3----|


  Q    E  S S E  E  E  E     Q.     S S Q    Q       E  E  E  E  E  E  E  E   
--------------------------|-----------------------|--------------0-----------|
--------------------------|-----------------------|-----------0-----0--------|
--9----9--9-9-9--5-----7--|--L--------------------|--------5-----------5-----|
--9----9--9-9-9--5-----7--|--L------7-7-7----5----|-----5-----------------5--|
--7----7--7-7-7--3-----5--|--L------7-7-7----5----|--3-----------------------|
--0-----------------------|---------5-5-5----3----|--------------------------|


  E  E  E  E  E  E  E  E     E  E  E  E  E  E  E  E   
--------------2-----------|--------------0-----------|
-----------3-----3--------|-----------0-----0--------|
--------2-----------2-----|--------2-----------2-----|
-----4-----------------4--|-----2-----------------2--|
--2-----------------------|--0-----------------------|
--------------------------|--------------------------|


  E  E  E  E  E  E  E  E     E  E  E  E  E  E  E  E     E  E  E  E  E  E  Q     
--------------0-----------|--------------0-----------|--------------0----------|
-----------0-----0--------|-----------0-----0--------|--------3-----------3----|
--------0-----------0-----|--------5-----------5-----|-----2-----2-----4-------|
-----2-----------------2--|-----5-----------------5--|--0----------------------|
--------------------------|--3-----------------------|-------------------------|
--0-----------------------|--------------------------|-------------------------|


  PM PM PM PM PM PM PM PM    PM PM PM PM PM PM PM PM  
  E  E  E  E  E  E  E  E     E  E  E  E  E  E  E  E   
--------------------------|--------------------------|
--------------------------|--------------------------|
--------------------------|--------------------------|
--9--9--9--9--9--9--9--9--|--9--9--9--9--9--9--9--9--|
--7--7--7--7--7--7--7--7--|--7--7--7--7--7--7--7--7--|
--0--0--0--0--0--0--0--0--|--0--0--0--0--0--0--0--0--|


  PM PM PM PM PM PM PM PM    PM PM PM PM PM PM PM PM  
  E  E  E  E  E  E  E  E     E  E  E  E  E  E  E  E   
--------------------------|--------------------------|
--8--8--8--8--8--8--8--8--|--5--5--5--5--5--5--5--5--|
--9--9--9--9--9--9--9--9--|--5--5--5--5--5--5--5--5--|
--------------------------|--------------------------|
--------------------------|--------------------------|
--------------------------|--------------------------|


  PM PM PM PM PM PM PM PM    PM PM PM PM PM PM PM PM  
  E  E  E  E  E  E  E  E     E  E  E  E  E  E  E  E   
--------------------------|--------------------------|
--7--7--7--7--7--7--7--7--|--8--8--8--7--7--7--7--7--|
--7--7--7--7--7--7--7--7--|--9--9--9--7--7--7--7--7--|
--------------------------|--------------------------|
--------------------------|--------------------------|
--------------------------|--------------------------|


  PM PM PM PM PM PM PM PM    PM PM PM PM PM PM PM PM  
  E  E  E  E  E  E  E  E     E  E  E  E  E  E  E  E   
--------------------------|--------------------------|
--8--8--8--8--8--8--8--8--|--5--5--5--5--5--5--5--5--|
--9--9--9--9--9--9--9--9--|--5--5--5--5--5--5--5--5--|
--------------------------|--------------------------|
--------------------------|--------------------------|
--------------------------|--------------------------|


  PM PM PM PM PM PM PM PM    PM PM PM PM PM PM PM PM  
  E  E  E  E  E  E  E  E     E  E  E  E  E  E  E  E   
--------------------------|--------------------------|
--7--7--7--7--7--7--7--7--|--8--8--8--7--7--7--7--7--|
--7--7--7--7--7--7--7--7--|--9--9--9--7--7--7--7--7--|
--------------------------|--------------------------|
--------------------------|--------------------------|
--------------------------|--------------------------|


  PM PM PM PM PM PM PM PM    PM PM PM PM PM PM PM PM  
  E  E  E  E  E  E  E  E     E  E  E  E  E  E  E  E   
--------------------------|--------------------------|
--8--8--8--8--8--8--8--8--|--5--5--5--5--5--5--5--5--|
--9--9--9--9--9--9--9--9--|--5--5--5--5--5--5--5--5--|
--------------------------|--------------------------|
--------------------------|--------------------------|
--------------------------|--------------------------|


  PM PM PM PM PM PM PM PM    PM PM PM PM PM PM PM PM  
  E  E  E  E  E  E  E  E     E  E  E  E  E  E  E  E   
--------------------------|--------------------------|
--7--7--7--7--7--7--7--7--|--8--8--8--7--7--7--7--7--|
--7--7--7--7--7--7--7--7--|--9--9--9--7--7--7--7--7--|
--------------------------|--------------------------|
--------------------------|--------------------------|
--------------------------|--------------------------|


  PM PM PM PM PM PM PM PM    PM PM PM PM PM PM PM PM  
  E  E  E  E  E  E  E  E     E  E  E  E  E  E  E  E   
--------------------------|--------------------------|
--8--8--8--8--8--8--8--8--|--5--5--5--5--5--5--5--5--|
--9--9--9--9--9--9--9--9--|--5--5--5--5--5--5--5--5--|
--------------------------|--------------------------|
--------------------------|--------------------------|
--------------------------|--------------------------|


  PM PM PM PM PM PM PM PM    PM PM PM PM PM PM PM PM  
  E  E  E  E  E  E  E  E     E  E  E  E  E  E  E  E   
--------------------------|--------------------------|
--7--7--7--7--7--7--7--7--|--8--8--8--7--7--7--7--7--|
--7--7--7--7--7--7--7--7--|--9--9--9--7--7--7--7--7--|
--------------------------|--------------------------|
--------------------------|--------------------------|
--------------------------|--------------------------|


  PM PM PM PM PM PM PM PM    PM PM PM PM PM PM PM PM  
  E  E  E  E  E  E  E  E     E  E  E  E  E  E  E  E   
--------------------------|--------------------------|
--8--8--8--8--8--8--8--8--|--5--5--5--5--5--5--5--5--|
--9--9--9--9--9--9--9--9--|--5--5--5--5--5--5--5--5--|
--------------------------|--------------------------|
--------------------------|--------------------------|
--------------------------|--------------------------|


  PM PM PM PM PM PM PM PM    PM PM PM PM PM PM PM PM   
  E  E  E  E  E  E  E  E     E  E  E  E  E  E  E  E    
--------------------------|--------------------------||
--7--7--7--7--7--7--7--7--|--8--8--8--7--7--7--7--7--||
--7--7--7--7--7--7--7--7--|--9--9--9--7--7--7--7--7--||
--------------------------|--------------------------||
--------------------------|--------------------------||
--------------------------|--------------------------||



=================================================================
=================================================================

Guitar 2



                             H.           E  S S    W                 
E||-------|-------|-------|----------------------|-------------------|
B||-------|-------|-------|----------------------|-------------------|
G||-------|-------|-------|----------------------|-------------------|
D||-------|-------|-------|----------------------|-------------------|
A||-------|-------|-------|----------------------|--2----------------|
E||-------|-------|-------|------------------5-5-|--0----------------|


  W                   W                   H.           E  S S  
-------------------|-------------------|----------------------|
-------------------|-------------------|----------------------|
-------------------|-------------------|----------------------|
-------------------|-------------------|----------------------|
--L----------------|--L----------------|--L-------------------|
--L----------------|--L----------------|--L---------------5-5-|


  W                   W                   W                 
-------------------|-------------------|-------------------|
-------------------|-------------------|-------------------|
-------------------|-------------------|-------------------|
-------------------|-------------------|-------------------|
--2----------------|--L----------------|--L----------------|
--0----------------|--L----------------|--L----------------|


  H.           E  S S    W                   W                 
----------------------|-------------------|-------------------|
----------------------|-------------------|-------------------|
----------------------|-------------------|-------------------|
----------------------|-------------------|-------------------|
--L-------------------|--2----------------|--L----------------|
--L---------------5-5-|--0----------------|--L----------------|


  W                   H.           E  S S    Q    E  S S E  E  E  E   
-------------------|----------------------|--------------------------|
-------------------|----------------------|--------------------------|
-------------------|----------------------|--9----9--9-9-9--5-----7--|
-------------------|----------------------|--9----9--9-9-9--5-----7--|
--L----------------|--L-------------------|--7----7--7-7-7--3-----5--|
--L----------------|--L---------------5-5-|--0-----------------------|


  Q.     S S E  E  E  E     Q    E  S S E  E  E  E     Q.     S S E  E  E  E   
-------------------------|--------------------------|-------------------------|
-------------------------|--------------------------|-------------------------|
--L----------------------|--9----9--9-9-9--5-----7--|--L----------------------|
--L------7-7-7--7--5--5--|--9----9--9-9-9--5-----7--|--L------7-7-7--7--5--5--|
--L------7-7-7--7--5--5--|--7----7--7-7-7--3-----5--|--L------7-7-7--7--5--5--|
---------5-5-5--5--3--3--|--0-----------------------|---------5-5-5--5--3--3--|


  Q    E  S S E  E  E  E     Q.     S S E  E  E  E     Q    E  E  E  E  E  E   
--------------------------|-------------------------|-------------------------|
--------------------------|-------------------------|-------8--7--8--7--8--7--|
--9----9--9-9-9--5-----7--|--L----------------------|-------9--7--9--7--9--7--|
--9----9--9-9-9--5-----7--|--L------7-7-7--7--5--5--|-------------------------|
--7----7--7-7-7--3-----5--|--L------7-7-7--7--5--5--|-------------------------|
--0-----------------------|---------5-5-5--5--3--3--|-------------------------|


     H        E  E  Q       Q    E  S S E  E  E  E     Q.     S S E  E  E  E   
-------------------------|--------------------------|-------------------------|
--8g10--------8--7-------|--------------------------|-------------------------|
----11--------9--7--7----|--9----9--9-9-9--5-----7--|--L----------------------|
--------------------9----|--9----9--9-9-9--5-----7--|--L------7-7-7--7--5--5--|
-------------------------|--7----7--7-7-7--3-----5--|--L------7-7-7--7--5--5--|
-------------------------|--0-----------------------|---------5-5-5--5--3--3--|


  Q    E  S S E  E  E  E     Q.     S S E  E  E  E     Q    E  S S E  E  E  E   
--------------------------|-------------------------|--------------------------|
--------------------------|-------------------------|--------------------------|
--9----9--9-9-9--5-----7--|--L----------------------|--9----9--9-9-9--5-----7--|
--9----9--9-9-9--5-----7--|--L------7-7-7--7--5--5--|--9----9--9-9-9--5-----7--|
--7----7--7-7-7--3-----5--|--L------7-7-7--7--5--5--|--7----7--7-7-7--3-----5--|
--0-----------------------|---------5-5-5--5--3--3--|--0-----------------------|


  Q.     S S E  E  E  E     Q    E  S S E  E  E  E     Q.     S S Q    Q     
-------------------------|--------------------------|-----------------------|
-------------------------|--------------------------|-----------------------|
--L----------------------|--9----9--9-9-9--5-----7--|--L--------------------|
--L------7-7-7--7--5--5--|--9----9--9-9-9--5-----7--|--L------7-7-7----5----|
--L------7-7-7--7--5--5--|--7----7--7-7-7--3-----5--|--L------7-7-7----5----|
---------5-5-5--5--3--3--|--0-----------------------|---------5-5-5----3----|


  H         H             W                   H         H          
----------------------|--------------------|----------------------|
-----------10b--------|---L----------------|-----------15b--------|
----------------------|--------------------|----------------------|
----------------------|--------------------|----------------------|
----------------------|--------------------|----------------------|
----------------------|--------------------|----------------------|


   W                   H         H             W                 
--------------------|----------------------|--------------------|
---L----------------|-----------10b--------|---L----------------|
--------------------|----------------------|--------------------|
--------------------|----------------------|--------------------|
--------------------|----------------------|--------------------|
--------------------|----------------------|--------------------|


  Q     Q    Q     Q       W                   Q    E  S S E  E  E  E   
------------------------|-------------------|--------------------------|
--8p----5----8p----5----|--8----------------|--------------------------|
------------------------|-------------------|--9----9--9-9-9--5-----7--|
------------------------|-------------------|--9----9--9-9-9--5-----7--|
------------------------|-------------------|--7----7--7-7-7--3-----5--|
------------------------|-------------------|--0-----------------------|


  Q.     S S E  E  E  E     Q    E  S S E  E  E  E     Q.     S S E  E  E  E   
-------------------------|--------------------------|-------------------------|
-------------------------|--------------------------|-------------------------|
--L----------------------|--9----9--9-9-9--5-----7--|--L----------------------|
--L------7-7-7--7--5--5--|--9----9--9-9-9--5-----7--|--L------7-7-7--7--5--5--|
--L------7-7-7--7--5--5--|--7----7--7-7-7--3-----5--|--L------7-7-7--7--5--5--|
---------5-5-5--5--3--3--|--0-----------------------|---------5-5-5--5--3--3--|


  Q    E  S S E  E  E  E     Q.     S S E  E  E  E     Q    E  E  E  E  E  E   
--------------------------|-------------------------|-------------------------|
--------------------------|-------------------------|-------8--7--8--7--8--7--|
--9----9--9-9-9--5-----7--|--L----------------------|-------9--7--9--7--9--7--|
--9----9--9-9-9--5-----7--|--L------7-7-7--7--5--5--|-------------------------|
--7----7--7-7-7--3-----5--|--L------7-7-7--7--5--5--|-------------------------|
--0-----------------------|---------5-5-5--5--3--3--|-------------------------|


     H        E  E  Q       Q    E  S S E  E  E  E     Q.     S S E  E  E  E   
-------------------------|--------------------------|-------------------------|
--8g10--------8--7-------|--------------------------|-------------------------|
----11--------9--7--7----|--9----9--9-9-9--5-----7--|--L----------------------|
--------------------9----|--9----9--9-9-9--5-----7--|--L------7-7-7--7--5--5--|
-------------------------|--7----7--7-7-7--3-----5--|--L------7-7-7--7--5--5--|
-------------------------|--0-----------------------|---------5-5-5--5--3--3--|


  Q    E  S S E  E  E  E     Q.     S S E  E  E  E     Q    E  S S E  E  E  E   
--------------------------|-------------------------|--------------------------|
--------------------------|-------------------------|--------------------------|
--9----9--9-9-9--5-----7--|--L----------------------|--9----9--9-9-9--5-----7--|
--9----9--9-9-9--5-----7--|--L------7-7-7--7--5--5--|--9----9--9-9-9--5-----7--|
--7----7--7-7-7--3-----5--|--L------7-7-7--7--5--5--|--7----7--7-7-7--3-----5--|
--0-----------------------|---------5-5-5--5--3--3--|--0-----------------------|


  Q.     S S E  E  E  E     Q    E  S S E  E  E  E     Q.     S S Q    Q     
-------------------------|--------------------------|-----------------------|
-------------------------|--------------------------|-----------------------|
--L----------------------|--9----9--9-9-9--5-----7--|--L--------------------|
--L------7-7-7--7--5--5--|--9----9--9-9-9--5-----7--|--L------7-7-7----5----|
--L------7-7-7--7--5--5--|--7----7--7-7-7--3-----5--|--L------7-7-7----5----|
---------5-5-5--5--3--3--|--0-----------------------|---------5-5-5----3----|


  H         H             W                   H         H          
----------------------|--------------------|----------------------|
-----------10b--------|---L----------------|-----------15b--------|
----------------------|--------------------|----------------------|
----------------------|--------------------|----------------------|
----------------------|--------------------|----------------------|
----------------------|--------------------|----------------------|


   W                   H         H             W                 
--------------------|----------------------|--------------------|
---L----------------|-----------10b--------|---L----------------|
--------------------|----------------------|--------------------|
--------------------|----------------------|--------------------|
--------------------|----------------------|--------------------|
--------------------|----------------------|--------------------|


  Q     Q    Q     Q       H.           E  S S    W                 
------------------------|----------------------|-------------------|
--8p----5----8p----5----|--8-------------------|-------------------|
------------------------|----------------------|-------------------|
------------------------|----------------------|-------------------|
------------------------|----------------------|--2----------------|
------------------------|------------------5-5-|--0----------------|


  W                   W                   H.           E  S S  
-------------------|-------------------|----------------------|
-------------------|-------------------|----------------------|
-------------------|-------------------|----------------------|
-------------------|-------------------|----------------------|
--L----------------|--L----------------|--L-------------------|
--L----------------|--L----------------|--L---------------5-5-|


  W                   W                   W                 
-------------------|-------------------|-------------------|
-------------------|-------------------|-------------------|
-------------------|-------------------|-------------------|
-------------------|-------------------|-------------------|
--2----------------|--L----------------|--L----------------|
--0----------------|--L----------------|--L----------------|


  H.           E  S S  
----------------------|
----------------------|
----------------------|
----------------------|
--L-------------------|
--L---------------5-5-|


   S   S  S   S  S   S  S   S  S   S  S   S  S   S  S   S  
----------------------------------------------------------|
------12-15p-12-17p-12-----12-15p-12-17p-12-----12-15p-12-|
--14b------------------14b------------------14b-----------|
----------------------------------------------------------|
----------------------------------------------------------|
----------------------------------------------------------|


   S   S  S   S  S   S   S  S  S  S  E   Q      
-----------------------------------------------|
--17p-12-----12--------------------------------|
---------14b----15p-14p-12----14----12---------|
---------------------------14----14-----14~----|
-----------------------------------------------|
-----------------------------------------------|


   E   S   S  E   E   E   E   E   E      E   E   E  E    E    E   Q      
-------------------------------------|----------------------------------|
-------------------------------------|----------------------------------|
-------------12--11------------------|----------------------------------|
---L--12h-14---------12----------12--|----------------------------------|
-------------------------14--14------|--------------9h--10s--12--10~----|
-------------------------------------|--14--10--12----------------------|


  E.   E    S  S   S  S   S  S   S  Q      
-----------------------------------15b----|
-----------12-15p-12-----12-15p-12--------|
------14b------------14b------------------|
------------------------------------------|
------------------------------------------|
------------------------------------------|


   E     E   S  S   S   S  S  S  S   S  E   E   
---Lpb--15--14-12h-14p-12----12--------14--15--|
--------------------------15----15s-17---------|
-----------------------------------------------|
-----------------------------------------------|
-----------------------------------------------|
-----------------------------------------------|


   E    S   S  E   E   E   E   E   E      E   E   E   E   Q.       S   S   
--17p--15p-14-----14------------------|---------------------------15h-17h-|
--------------17------15--------------|--15-------------------------------|
--------------------------16--14------|------16--15--14-------------------|
----------------------------------17--|------------------17~--------------|
--------------------------------------|-----------------------------------|
--------------------------------------|-----------------------------------|


   S   S  S   S  S   S  S  S  S   S  S  S  S   S  S   S  
--19p-17-15s-14-17p-15-14-12-15p-14-12----14p-12--------|
---------------------------------------15--------15p-13-|
--------------------------------------------------------|
--------------------------------------------------------|
--------------------------------------------------------|
--------------------------------------------------------|


   S  S   S   S  S   S   S  S  S   S  S   S  E    E    
--12--------------------------------------------------|
-----15p-13p-12-15p-13p-12----13p-12------------------|
---------------------------14--------14p-12-14b--14b--|
------------------------------------------------------|
------------------------------------------------------|
------------------------------------------------------|


   |----3---|   |----3---|                                
   E   E    E   E    E   E    S   S   S   S  S  S  S   S  
--12-----------------------------------------------------|
------15p--12-------12-----------------------------------|
---------------14b------15p--14p-12h-14p-12----12--------|
--------------------------------------------14----14p-12-|
---------------------------------------------------------|
---------------------------------------------------------|


   S   S  S  S  E   E   Q.       S   S     E      Q     E   E   E   E   E   
---------------------------------------|-----------------------------------|
---------------------------------------|-----------------------------------|
---------------------------------------|-------------------12--11------11--|
---------------------------------------|---------------12----------14------|
--14s-12-10----12--10------------------|--10--12g14------------------------|
------------12---------12~------10h-12-|-----------------------------------|


   E   E   E   E   S   S    S   S  E   E   
------------------------------------------|
------------------------------------------|
----------11--12--14b--Lpb--Lp-12-14--12--|
--12--14----------------------------------|
------------------------------------------|
------------------------------------------|


   Q     E   E   S  S   S   S  E   E      E   E   E   E   E   E   E   E   
--------------------------------------|----------------------------------|
--15----13--12--13-12h-13p-12-----12--|----------------------------------|
------------------------------14------|--12--14--11--12------11----------|
--------------------------------------|------------------14------12------|
--------------------------------------|------------------------------14--|
--------------------------------------|----------------------------------|


  Q    E  S S E  E  E  E     Q.     S S E  E  E  E     Q    E  S S E  E  E  E   
--------------------------|-------------------------|--------------------------|
--------------------------|-------------------------|--------------------------|
--9----9--9-9-9--5-----7--|--L----------------------|--9----9--9-9-9--5-----7--|
--9----9--9-9-9--5-----7--|--L------7-7-7--7--5--5--|--9----9--9-9-9--5-----7--|
--7----7--7-7-7--3-----5--|--L------7-7-7--7--5--5--|--7----7--7-7-7--3-----5--|
--0-----------------------|---------5-5-5--5--3--3--|--0-----------------------|


  Q.     S S E  E  E  E     Q    E  S S E  E  E  E     Q.     S S E  E  E  E   
-------------------------|--------------------------|-------------------------|
-------------------------|--------------------------|-------------------------|
--L----------------------|--9----9--9-9-9--5-----7--|--L----------------------|
--L------7-7-7--7--5--5--|--9----9--9-9-9--5-----7--|--L------7-7-7--7--5--5--|
--L------7-7-7--7--5--5--|--7----7--7-7-7--3-----5--|--L------7-7-7--7--5--5--|
---------5-5-5--5--3--3--|--0-----------------------|---------5-5-5--5--3--3--|


  Q    E  E  E  E  E  E        H        E  E  Q       Q    E  S S E  E  E  E   
-------------------------|-------------------------|--------------------------|
-------8--7--8--7--8--7--|--8g10--------8--7-------|--------------------------|
-------9--7--9--7--9--7--|----11--------9--7--7----|--9----9--9-9-9--5-----7--|
-------------------------|--------------------9----|--9----9--9-9-9--5-----7--|
-------------------------|-------------------------|--7----7--7-7-7--3-----5--|
-------------------------|-------------------------|--0-----------------------|


  Q.     S S E  E  E  E     Q    E  S S E  E  E  E     Q.     S S E  E  E  E   
-------------------------|--------------------------|-------------------------|
-------------------------|--------------------------|-------------------------|
--L----------------------|--9----9--9-9-9--5-----7--|--L----------------------|
--L------7-7-7--7--5--5--|--9----9--9-9-9--5-----7--|--L------7-7-7--7--5--5--|
--L------7-7-7--7--5--5--|--7----7--7-7-7--3-----5--|--L------7-7-7--7--5--5--|
---------5-5-5--5--3--3--|--0-----------------------|---------5-5-5--5--3--3--|


  Q    E  S S E  E  E  E     Q.     S S E  E  E  E     Q    E  S S E  E  E  E   
--------------------------|-------------------------|--------------------------|
--------------------------|-------------------------|--------------------------|
--9----9--9-9-9--5-----7--|--L----------------------|--9----9--9-9-9--5-----7--|
--9----9--9-9-9--5-----7--|--L------7-7-7--7--5--5--|--9----9--9-9-9--5-----7--|
--7----7--7-7-7--3-----5--|--L------7-7-7--7--5--5--|--7----7--7-7-7--3-----5--|
--0-----------------------|---------5-5-5--5--3--3--|--0-----------------------|


  Q.     S S Q    Q       H         H             W                 
-----------------------|----------------------|--------------------|
-----------------------|-----------10b--------|---L----------------|
--L--------------------|----------------------|--------------------|
--L------7-7-7----5----|----------------------|--------------------|
--L------7-7-7----5----|----------------------|--------------------|
---------5-5-5----3----|----------------------|--------------------|


  H         H             W                   H         H          
----------------------|--------------------|----------------------|
-----------15b--------|---L----------------|-----------10b--------|
----------------------|--------------------|----------------------|
----------------------|--------------------|----------------------|
----------------------|--------------------|----------------------|
----------------------|--------------------|----------------------|


   W                   Q     Q    Q     Q       W                 
--------------------|------------------------|-------------------|
---L----------------|--8p----5----8p----5----|--8----------------|
--------------------|------------------------|-------------------|
--------------------|------------------------|-------------------|
--------------------|------------------------|-------------------|
--------------------|------------------------|-------------------|


  PM PM PM PM PM PM PM PM    PM PM PM PM PM PM PM PM  
  E  E  E  E  E  E  E  E     E  E  E  E  E  E  E  E   
--------------------------|--------------------------|
--------------------------|--------------------------|
--9--9--9--9--9--9--9--9--|--5--5--5--5--5--5--5--5--|
--------------------------|--------------------------|
--------------------------|--------------------------|
--------------------------|--------------------------|


  PM PM PM PM PM PM PM PM    PM PM PM PM PM PM PM PM  
  E  E  E  E  E  E  E  E     E  E  E  E  E  E  E  E   
--------------------------|--------------------------|
--------------------------|--------------------------|
--7--7--7--7--7--7--7--7--|--9--9--9--7--7--7--7--7--|
--------------------------|--------------------------|
--------------------------|--------------------------|
--------------------------|--------------------------|


  PM PM PM PM PM PM PM PM    PM PM PM PM PM PM PM PM  
  E  E  E  E  E  E  E  E     E  E  E  E  E  E  E  E   
--------------------------|--------------------------|
--------------------------|--------------------------|
--9--9--9--9--9--9--9--9--|--5--5--5--5--5--5--5--5--|
--------------------------|--------------------------|
--------------------------|--------------------------|
--------------------------|--------------------------|


  PM PM PM PM PM PM PM PM    PM PM PM PM PM PM PM PM  
  E  E  E  E  E  E  E  E     E  E  E  E  E  E  E  E   
--------------------------|--------------------------|
--------------------------|--------------------------|
--7--7--7--7--7--7--7--7--|--9--9--9--7--7--7--7--7--|
--------------------------|--------------------------|
--------------------------|--------------------------|
--------------------------|--------------------------|


  PM PM PM PM PM PM PM PM    PM PM PM PM PM PM PM PM  
  E  E  E  E  E  E  E  E     E  E  E  E  E  E  E  E   
--------------------------|--------------------------|
--------------------------|--------------------------|
--9--9--9--9--9--9--9--9--|--5--5--5--5--5--5--5--5--|
--------------------------|--------------------------|
--------------------------|--------------------------|
--------------------------|--------------------------|


  PM PM PM PM PM PM PM PM    PM PM PM PM PM PM PM PM  
  E  E  E  E  E  E  E  E     E  E  E  E  E  E  E  E   
--------------------------|--------------------------|
--------------------------|--------------------------|
--7--7--7--7--7--7--7--7--|--9--9--9--7--7--7--7--7--|
--------------------------|--------------------------|
--------------------------|--------------------------|
--------------------------|--------------------------|


  PM PM PM PM PM PM PM PM    PM PM PM PM PM PM PM PM  
  E  E  E  E  E  E  E  E     E  E  E  E  E  E  E  E   
--------------------------|--------------------------|
--------------------------|--------------------------|
--9--9--9--9--9--9--9--9--|--5--5--5--5--5--5--5--5--|
--------------------------|--------------------------|
--------------------------|--------------------------|
--------------------------|--------------------------|


  PM PM PM PM PM PM PM PM    PM PM PM PM PM PM PM PM  
  E  E  E  E  E  E  E  E     E  E  E  E  E  E  E  E   
--------------------------|--------------------------|
--------------------------|--------------------------|
--7--7--7--7--7--7--7--7--|--9--9--9--7--7--7--7--7--|
--------------------------|--------------------------|
--------------------------|--------------------------|
--------------------------|--------------------------|


  PM PM PM PM PM PM PM PM    PM PM PM PM PM PM PM PM  
  E  E  E  E  E  E  E  E     E  E  E  E  E  E  E  E   
--------------------------|--------------------------|
--------------------------|--------------------------|
--9--9--9--9--9--9--9--9--|--5--5--5--5--5--5--5--5--|
--------------------------|--------------------------|
--------------------------|--------------------------|
--------------------------|--------------------------|


  PM PM PM PM PM PM PM PM    PM PM PM PM PM PM PM PM   
  E  E  E  E  E  E  E  E     E  E  E  E  E  E  E  E    
--------------------------|--------------------------||
--------------------------|--------------------------||
--7--7--7--7--7--7--7--7--|--9--9--9--7--7--7--7--7--||
--------------------------|--------------------------||
--------------------------|--------------------------||
--------------------------|--------------------------||


====================================================
====================================================

  
Guitar 3



E||-------|-------|-------|-------|-------|-------|-------|-------|-------|
B||-------|-------|-------|-------|-------|-------|-------|-------|-------|
G||-------|-------|-------|-------|-------|-------|-------|-------|-------|
D||-------|-------|-------|-------|-------|-------|-------|-------|-------|
A||-------|-------|-------|-------|-------|-------|-------|-------|-------|
E||-------|-------|-------|-------|-------|-------|-------|-------|-------|


-------|-------|-------|-------|-------|-------|-------|-------|-------|-------|
-------|-------|-------|-------|-------|-------|-------|-------|-------|-------|
-------|-------|-------|-------|-------|-------|-------|-------|-------|-------|
-------|-------|-------|-------|-------|-------|-------|-------|-------|-------|
-------|-------|-------|-------|-------|-------|-------|-------|-------|-------|
-------|-------|-------|-------|-------|-------|-------|-------|-------|-------|


-------|-------|-------|-------|-------|-------|-------|-------|-------|-------|
-------|-------|-------|-------|-------|-------|-------|-------|-------|-------|
-------|-------|-------|-------|-------|-------|-------|-------|-------|-------|
-------|-------|-------|-------|-------|-------|-------|-------|-------|-------|
-------|-------|-------|-------|-------|-------|-------|-------|-------|-------|
-------|-------|-------|-------|-------|-------|-------|-------|-------|-------|


                          H         H             W                 
-------|-------|-------|----------------------|--------------------|
-------|-------|-------|----------------------|--------------------|
-------|-------|-------|-----------11b--------|---L----------------|
-------|-------|-------|----------------------|--------------------|
-------|-------|-------|----------------------|--------------------|
-------|-------|-------|----------------------|--------------------|


  H         H             W                   H         H          
----------------------|--------------------|----------------------|
-----------10b--------|---L----------------|----------------------|
----------------------|--------------------|-----------11b--------|
----------------------|--------------------|----------------------|
----------------------|--------------------|----------------------|
----------------------|--------------------|----------------------|


   W                   Q     Q    Q     Q       W                         
--------------------|------------------------|-------------------|-------|
--------------------|--8p----5----8p----5----|--8----------------|-------|
---L----------------|------------------------|-------------------|-------|
--------------------|------------------------|-------------------|-------|
--------------------|------------------------|-------------------|-------|
--------------------|------------------------|-------------------|-------|


-------|-------|-------|-------|-------|-------|-------|-------|-------|-------|
-------|-------|-------|-------|-------|-------|-------|-------|-------|-------|
-------|-------|-------|-------|-------|-------|-------|-------|-------|-------|
-------|-------|-------|-------|-------|-------|-------|-------|-------|-------|
-------|-------|-------|-------|-------|-------|-------|-------|-------|-------|
-------|-------|-------|-------|-------|-------|-------|-------|-------|-------|


                                          H         H          
-------|-------|-------|-------|-------|----------------------|
-------|-------|-------|-------|-------|----------------------|
-------|-------|-------|-------|-------|-----------11b--------|
-------|-------|-------|-------|-------|----------------------|
-------|-------|-------|-------|-------|----------------------|
-------|-------|-------|-------|-------|----------------------|


   W                   H         H             W                 
--------------------|----------------------|--------------------|
--------------------|-----------10b--------|---L----------------|
---L----------------|----------------------|--------------------|
--------------------|----------------------|--------------------|
--------------------|----------------------|--------------------|
--------------------|----------------------|--------------------|


  H         H             W                   Q     Q    Q     Q     
----------------------|--------------------|------------------------|
----------------------|--------------------|--8p----5----8p----5----|
-----------11b--------|---L----------------|------------------------|
----------------------|--------------------|------------------------|
----------------------|--------------------|------------------------|
----------------------|--------------------|------------------------|


  W                                                                         
-------------------|-------|-------|-------|-------|-------|-------|-------|
--8----------------|-------|-------|-------|-------|-------|-------|-------|
-------------------|-------|-------|-------|-------|-------|-------|-------|
-------------------|-------|-------|-------|-------|-------|-------|-------|
-------------------|-------|-------|-------|-------|-------|-------|-------|
-------------------|-------|-------|-------|-------|-------|-------|-------|


-------|-------|-------|-------|-------|-------|-------|-------|-------|-------|
-------|-------|-------|-------|-------|-------|-------|-------|-------|-------|
-------|-------|-------|-------|-------|-------|-------|-------|-------|-------|
-------|-------|-------|-------|-------|-------|-------|-------|-------|-------|
-------|-------|-------|-------|-------|-------|-------|-------|-------|-------|
-------|-------|-------|-------|-------|-------|-------|-------|-------|-------|


                                           Q     E   E   S   S   S  S  E   E   
-------|-------|-------|-------|-------|--14----12--10--12p-10h-12-10-----10--|
-------|-------|-------|-------|-------|------------------------------13------|
-------|-------|-------|-------|-------|--------------------------------------|
-------|-------|-------|-------|-------|--------------------------------------|
-------|-------|-------|-------|-------|--------------------------------------|
-------|-------|-------|-------|-------|--------------------------------------|


   E   E   E   E   E   E   E   E                                           
----------------------------------|-------|-------|-------|-------|-------|
--12--13--10--12------10----------|-------|-------|-------|-------|-------|
------------------12------11------|-------|-------|-------|-------|-------|
------------------------------12--|-------|-------|-------|-------|-------|
----------------------------------|-------|-------|-------|-------|-------|
----------------------------------|-------|-------|-------|-------|-------|


-------|-------|-------|-------|-------|-------|-------|-------|-------|-------|
-------|-------|-------|-------|-------|-------|-------|-------|-------|-------|
-------|-------|-------|-------|-------|-------|-------|-------|-------|-------|
-------|-------|-------|-------|-------|-------|-------|-------|-------|-------|
-------|-------|-------|-------|-------|-------|-------|-------|-------|-------|
-------|-------|-------|-------|-------|-------|-------|-------|-------|-------|


          H         H             W                   H         H          
-------|----------------------|--------------------|----------------------|
-------|-----------10b--------|---L----------------|-----------15b--------|
-------|----------------------|--------------------|----------------------|
-------|----------------------|--------------------|----------------------|
-------|----------------------|--------------------|----------------------|
-------|----------------------|--------------------|----------------------|


   W                   H         H             W                 
--------------------|----------------------|--------------------|
---L----------------|-----------10b--------|---L----------------|
--------------------|----------------------|--------------------|
--------------------|----------------------|--------------------|
--------------------|----------------------|--------------------|
--------------------|----------------------|--------------------|


                                               PM PM PM PM PM PM PM PM  
  Q     Q    Q     Q       W                   E  E  E  E  E  E  E  E   
------------------------|-------------------|--------------------------|
--8p----5----8p----5----|--8----------------|--8--8--8--8--8--8--8--8--|
------------------------|-------------------|--------------------------|
------------------------|-------------------|--------------------------|
------------------------|-------------------|--------------------------|
------------------------|-------------------|--------------------------|


  PM PM PM PM PM PM PM PM    PM PM PM PM PM PM PM PM  
  E  E  E  E  E  E  E  E     E  E  E  E  E  E  E  E   
--------------------------|--------------------------|
--5--5--5--5--5--5--5--5--|--7--7--7--7--7--7--7--7--|
--------------------------|--------------------------|
--------------------------|--------------------------|
--------------------------|--------------------------|
--------------------------|--------------------------|


  PM PM PM PM PM PM PM PM    PM PM PM PM PM PM PM PM  
  E  E  E  E  E  E  E  E     E  E  E  E  E  E  E  E   
--------------------------|--------------------------|
--8--8--8--7--7--7--7--7--|--8--8--8--8--8--8--8--8--|
--------------------------|--------------------------|
--------------------------|--------------------------|
--------------------------|--------------------------|
--------------------------|--------------------------|


  PM PM PM PM PM PM PM PM    PM PM PM PM PM PM PM PM  
  E  E  E  E  E  E  E  E     E  E  E  E  E  E  E  E   
--------------------------|--------------------------|
--5--5--5--5--5--5--5--5--|--7--7--7--7--7--7--7--7--|
--------------------------|--------------------------|
--------------------------|--------------------------|
--------------------------|--------------------------|
--------------------------|--------------------------|


  PM PM PM PM PM PM PM PM    PM PM PM PM PM PM PM PM  
  E  E  E  E  E  E  E  E     E  E  E  E  E  E  E  E   
--------------------------|--------------------------|
--8--8--8--7--7--7--7--7--|--8--8--8--8--8--8--8--8--|
--------------------------|--------------------------|
--------------------------|--------------------------|
--------------------------|--------------------------|
--------------------------|--------------------------|


  PM PM PM PM PM PM PM PM    PM PM PM PM PM PM PM PM  
  E  E  E  E  E  E  E  E     E  E  E  E  E  E  E  E   
--------------------------|--------------------------|
--5--5--5--5--5--5--5--5--|--7--7--7--7--7--7--7--7--|
--------------------------|--------------------------|
--------------------------|--------------------------|
--------------------------|--------------------------|
--------------------------|--------------------------|


  PM PM PM PM PM PM PM PM    PM PM PM PM PM PM PM PM  
  E  E  E  E  E  E  E  E     E  E  E  E  E  E  E  E   
--------------------------|--------------------------|
--8--8--8--7--7--7--7--7--|--8--8--8--8--8--8--8--8--|
--------------------------|--------------------------|
--------------------------|--------------------------|
--------------------------|--------------------------|
--------------------------|--------------------------|


  PM PM PM PM PM PM PM PM    PM PM PM PM PM PM PM PM  
  E  E  E  E  E  E  E  E     E  E  E  E  E  E  E  E   
--------------------------|--------------------------|
--5--5--5--5--5--5--5--5--|--7--7--7--7--7--7--7--7--|
--------------------------|--------------------------|
--------------------------|--------------------------|
--------------------------|--------------------------|
--------------------------|--------------------------|


  PM PM PM PM PM PM PM PM    PM PM PM PM PM PM PM PM  
  E  E  E  E  E  E  E  E     E  E  E  E  E  E  E  E   
--------------------------|--------------------------|
--8--8--8--7--7--7--7--7--|--8--8--8--8--8--8--8--8--|
--------------------------|--------------------------|
--------------------------|--------------------------|
--------------------------|--------------------------|
--------------------------|--------------------------|


  PM PM PM PM PM PM PM PM    PM PM PM PM PM PM PM PM  
  E  E  E  E  E  E  E  E     E  E  E  E  E  E  E  E   
--------------------------|--------------------------|
--5--5--5--5--5--5--5--5--|--7--7--7--7--7--7--7--7--|
--------------------------|--------------------------|
--------------------------|--------------------------|
--------------------------|--------------------------|
--------------------------|--------------------------|


  PM PM PM PM PM PM PM PM   
  E  E  E  E  E  E  E  E    
--------------------------||
--8--8--8--7--7--7--7--7--||
--------------------------||
--------------------------||
--------------------------||
--------------------------||




Duration Legend
---------------
W - whole
H - half
Q - quarter
E - 8th
S - 16th
T - 32nd
X - 64th
. - note dotted
|-n-|  - n-tuplets


Tablature Legend
----------------
L - tied note
x - dead note
g - grace note
(n) - ghost note
> - accentuded note
NH - natural harmonic
AH - artificial harmonic
TH - tapped harmonic
SH - semi harmonic
PH - pitch harmonic
h - hammer on
p - pull off
b - bend
br - bendRelease
pb - preBend
pbr - preBendRelease
brb - bendReleaseBend
\n/ - tremolo bar dip
\n - tremolo bar dive
-/n - tremolo bar Release up
/n\ - tremolo bar inverted dip
/n - tremolo bar return
-\n - tremolo bar Release down
S - shift slide
s - legato slide
/ -  slide into from below or out of upwards
\ -  slide into from above or out of downwards
~ - vibrato
W - wide vibrato
tr - trill
TP - tremolo picking
T - tapping
S - slap
P - pop
< - fade in
^ - brush up
v - brush down
Tap to rate this tab
# A B C D E F G H I J K L M N O P Q R S T U V W X Y Z