Song name
# A B C D E F G H I J K L M N O P Q R S T U V W X Y Z

Tyla J Pallas - Throw It All Away chords

Highlighted       Show chord diagrams
THROW IT ALL AWAY
(Tyla)

                   Em
e------0-----0---------------|
B----0-----0-----------------|
G--3-----2-------------------|
D----------------------------|
A----------------------------|
E----------------------------|

  Em                              C
I just might call myself careless, selfish and blue
       Am
I once burnt a hole in your heart
      Em
Now I just burn myself through
Em                                C
You say I have the madness that's haunted you all your life
    Am
You say I bring the darkness
               Em
That turns the light of love into night

         C (Am)           Em
You said why throw it all away
         C                Em
You said why throw it all away

You call me callus, foolish and insane
And you kick me in the head of times
To remind me I've got a brain

You said why throw it all away
You said why throw it all away

You call me a dick at times and you set fire to my heart
And I remember what I was doing here
Right from the start
And you set fire to my eyes in the dark
When you ran through the gates of my heart

Why throw it all away
You said why throw it all away
I bet you think you're so smart, throw it all away
Why throw it all away
Why

                    Em
e------0-------0-------------|
B----0---0---0---------------|
G--3-------2-----------------|
D----------------------------|
A----------------------------|
E----------------------------|
Tap to rate this tab
# A B C D E F G H I J K L M N O P Q R S T U V W X Y Z