Song name
# A B C D E F G H I J K L M N O P Q R S T U V W X Y Z

Tyler Bates - Fever Dream tab

This is probably the sweetest song from the movie 300. it is definately my favorite so i 
my best to tab it out for you all.
this is one of my 1st tabs

http://www.last.fm/music/Tyler+Bates

e|---------------------------------------------------------|
B|---------------------------------------------------------|
G|----5-5-5--5-5--5-5--5-5-5-5--5-5-5--5-5--5-5--8-8-8-8---|
D|----5-5-5--5-5--5-5--5-5-5-5--5-5-5--5-5--5-5--8-8-8-8---|
A|----3-3-3--3-3--3-3--3-3-3-3--3-3-3--3-3--3-3--6-6-6-6---|
E|---------------------------------------------------------|

e|---------------------------------------------------------|
B|---------------------------------------------------------|
G|----55-55-55-55-----66-55-66655--------------------------|
D|----55-55-55-55-----66-55-66655--------------------------|
A|----33-33-33-33-----44-33-44433--------------------------|
E|---------------------------------------------------------|

e|---------------------------------------------------------|
B|---------------------------------------------------------|
G|----87-7-7-7---87-7-7-7---87-7-7-7---87-7-7-7---87-7-7-7-|
D|----87-7-7-7---87-7-7-7---87-7-7-7---87-7-7-7---87-7-7-7-|
A|----65-5-5-5---65-5-5-5---65-5-5-5---65-5-5-5---65-5-5-5-|
E|---------------------------------------------------------|
(x5)

e|-------------------------------|
B|-------------------------------|
G|----7---7--7/8-8-8-8/10-10-10--|
D|----7---7--7/8-8-8-8/10-10-10--|
A|----5---5--5/6-6-6-6/8--8--8---|
E|-------------------------------| (x3)

e|-------------------------------|
B|-------------------------------|
G|----77-77-77-77----88-77-88-77-|
D|----77-77-77-77----88-77-88-77-|
A|----55-55-55-55----66-55-66-55-|
E|-------------------------------|

e|---------------------------------------------------------|
B|---------------------------------------------------------|
G|----7-7-7-7---7-7-7-7/8-8-8-8---8-8-8-8/10-10-10-10---10-|
D|----7-7-7-7---7-7-7-7/8-8-8-8---8-8-8-8/10-10-10-10---10-|
A|----5-5-5-5---5-5-5-5/6-6-6-6---6-6-6-6/8--8--8--8----8--|
E|---------------------------------------------------------|

e|----------------------------------------------------------|
B|----------------------------------------------------------|
G|----7-7-7-7---7-7-7-7/8-8-8-8---8-8-8-8/10-10-10-10/12-12-|
D|----7-7-7-7---7-7-7-7/8-8-8-8---8-8-8-8/10-10-10-10/12-12-|
A|----5-5-5-5---5-5-5-5/6-6-6-6---6-6-6-6/8--8--8--8-/10-10-|
E|----------------------------------------------------------|

e|---------------------------------------------------------|
B|---------------------------------------------------------|
G|----7-7-7-7---7-7-7-7-88-77-88-77-77-7777\---------------|
D|----7-7-7-7---7-7-7-7-88-77-88-77-77-7777\---------------|
A|----5-5-5-5---5-5-5-5-66-55-66-55-55-5555\---------------|
E|---------------------------------------------------------|
Tap to rate this tab
# A B C D E F G H I J K L M N O P Q R S T U V W X Y Z