Song name
# A B C D E F G H I J K L M N O P Q R S T U V W X Y Z

Tyler Gilbert - Water To The King tab

-------------------------------------------------------------------------------
                             Water to the King - Tyler Gilbert
-------------------------------------------------------------------------------
Tuning: E standard
www.tylergilbert.ca

Intro - Electric
e|-0----0--0\0---------------------------------------------------------------|
B|-3/5--5--5\3p0--0/0~~------0---0-0-----------------------------------------|
G|----------------2/4~~--0-2-2/4-4-4\2-0-------------------------------------|
D|----------------------2----------------2~~---------------------------------|
A|---------------------------------------------------------------------------|
E|---------------------------------------------------------------------------|

Intro - Acoustic
e|-0-0-0-0-0---0-0-0-0-0---------------0-0-0-0-0-0---------------------------|
B|-1-1-1-1-1---0-0-0-0-0---------------0-0-0-0-0-0---------------------------|
G|-0-0-0-0-0---0-0-0-0-0---0-0-0-0-0---0-0-0-0-0-0---------------------------|
D|-2-2-2-0-0-0-2-2-2-2-2-0-4-4-4-5-4-0-2-2-2-2-2-2---------------------------|
A|-3-3-3-3-3-0-2-2-2-2-2-0-5-5-5-5-5-0-2-2-2-2-2-2---------------------------|
E|-3-3-3-3-3-0-0-0-0-0-0-0-5-5-5-5-5-0-0-0-0-0-0-0---------------------------|

Verse - Acoustic
e|-0-0-0-0-0---0-0-0-0-0---0-0-0-0-0-----------------------------------------|
B|-1-1-1-1-1---1-1-1-1-1---0-0-0-0-0-----------------------------------------|
G|-0-0-0-0-0---2-2-2-2-2---0-0-0-0-0---0-0-0-0-0-0-0-------------------------|
D|-2-2-2-2-2-0-2-2-2-2-2-0-2-2-2-2-2-0-4-4-4-5-4-4-0-------------------------|
A|-3-3-3-3-3-0-0-0-0-0-0-0-2-2-2-2-2-0-5-5-5-5-5-5-0-------------------------|
E|-3-3-3-3-3-0-----------0-0-0-0-0-0-0-5-5-5-5-5-5-0-------------------------|

Solo
e|---------------------------------------------------------------------------|
B|---------------------------------------------------------------------------|
G|-/7~~-5-4-2--/5~~-4-2-0--/2--/4--/5--/7--9~~---------12--------------------|
D|-----------------------------------------------12h14----14~~---------------|
A|---------------------------------------------------------------------------|
E|---------------------------------------------------------------------------|

e|---------------------------------------------------------------------------|
B|-----------------------------------------x15~~-13-12h13p12----1------------|
G|-------12-------------12-14pb-12-14pb~~~-------------------14--------------|
D|-12h14----14~~--12h14------------------------------------------------------|
A|---------------------------------------------------------------------------|
E|---------------------------------------------------------------------------|

e|------------------x15-14-12----12------------------------------------------|
B|----------------------------15----15-13-12----------15---------------------|
G|-14-12-14b-12~~~---------------------------14-12-14b---14pb-12-------------|
D|---------------------------------------------------------------14~~~-------|
A|---------------------------------------------------------------------------|
E|---------------------------------------------------------------------------|

e|------------------------------------------12h15p12----------12h15p12-------|
B|--------------------------------12-15~~~-----------15-12-15----------------|
G|-----------------12-14-14-14-14--------------------------------------------|
D|-/12-14-14-14-14-----------------------------------------------------------|
A|---------------------------------------------------------------------------|
E|---------------------------------------------------------------------------|

e|---------12h15p12---------12h15p12--------12h15p12--------12h15p12---------|
B|-15-12-15---------15-12-15--------15-12-15--------15-12-15--------15-12-15-|
G|---------------------------------------------------------------------------|
D|---------------------------------------------------------------------------|
A|---------------------------------------------------------------------------|
E|---------------------------------------------------------------------------|
e|-12h15p12--------12h15p12--------15h17p15--------15h17p15------------------|
B|---------15-12-15--------15-12-15--------17-15-17--------17-15-17----------|
G|---------------------------------------------------------------------------|
D|---------------------------------------------------------------------------|
A|---------------------------------------------------------------------------|
E|---------------------------------------------------------------------------|

e|-15h17p15--------15h17p15-17pb-17pb-15-------------------------------------|
B|---------17-15-17----------------------17-15-17~~~~~-----------------------|
G|---------------------------------------------------------------------------|
D|---------------------------------------------------------------------------|
A|---------------------------------------------------------------------------|
E|---------------------------------------------------------------------------|



************************************

| /   slide up
| \   slide down
| h   hammer-on
| p   pull-off
| ~   vibrato
| +   harmonic
| x   Mute note
| b   Bend
| pb  Pre-bend
| br  Bend release
| pbr Pre-bend release
| brb Bend release bend

************************************
Tap to rate this tab
# A B C D E F G H I J K L M N O P Q R S T U V W X Y Z