Song name
# A B C D E F G H I J K L M N O P Q R S T U V W X Y Z

Tyler Gilbert - Lady Of The Mountaintop tab

-------------------------------------------------------------------------------
                             LADY OF THE MOUNTAINTOP – Tyler Gilbert
-------------------------------------------------------------------------------
www.tylergilbert.ca

Tuning: Eb,G#,C#, F#,Bb,eb


Intro/Verse:
eb|-----------------0--------------------------------------------------0------|
Bb|-3-3-----------------3--------------------------------3-3-3-------------3--|
F#|-2-2---2----------------------------------------0h2---2-2-2----------------|
C#|-0-0-0-------0-0---0----------0-----------3p0---0-----0-0-0-----0-0---0----|
G#|-0-0-----0h3------------------------3-3h5-----------0-------0h3------------|
Eb|------------------------3-3-3---3h5----------------------------------------|

eb|-----------|-------------------|-------------------------------------------|
Bb|-----------|-------------------|-------------------------------------------|
F#|-----------|-----0-------------|-------------------------------------------|
C#|-------0---|-3/5---5\3p2p0-----|-------------------------------------------|
G#|-----------|---------------3---|-------------------------------------------|
Eb|-3-3-3-----|-------------------|--3p1-1-1-1h3-3-3--------------------------|

Chorus: 
eb|-0-0-0-0-0-0-0-0-0-0-0-0-0-0-0-0-0-0-0--|----------------------------------|
Bb|-3-3-3-3-3-3-3-3-3-3-3-3-3-3-3-3-3-3-3--|----------------------------------|
F#|-2-2-2-0-0-0-0-0-0-0-0-0---0-0-0-0-0-0--|----------------------------------|
C#|-0-0-0-0-2-2-2-0-0-0-0-0---2-2-2-2-2-2--|----------------------------------|
G#|-0-0-0-0-3-3-3-0-2-2-2-2h3-3-3-3-3-3-3--|-2p1-1-1-1-------0----------------|
Eb|-x-x-x-x--------------------------------|-----------3-3-3-0----------------|

Transition
eb|-------0-------------------------------------------------------------------|
Bb|-3-3-----3---3----10-----6-------------------------------------------------|
F#|-2---2-----2---------9-----5---0-------------------------------------------|
C#|-0--------------0------0-----0---------------------------------------------|
G#|-0-------------------------------------------------------------------------|
Eb|---------------------------------------------------------------------------|

eb|-------0-------------0-------------0---------------------------------------|
Bb|-6-6-----6---6-5-5-----5---5-4-4-----4---4-3-3-------3---------------------|
F#|-5---5-----5---4---4-----4---3---3-----3---2---2-0h2---2-------------------|
C#|-0-------------0-------------0-------------0-------------------------------|
G#|---------------------------------------------------------------------------|
Eb|---------------------------------------------------------------------------|

eb|---------|------------------|----------------------|-----------------------|
Bb|---3-3-x-|------------------|----------------------|-----------------------|
F#|---2-2-x-|----------0-------|-------------------0--|------0----------------|
C#|---0-0-x-|--------0---3bp0--|-0-0-0h3p0-0-0-----0--|--3/5---5\3p0----------|
G#|-0-0-0-x-|-0-0-0h3----------|---------------0h3----|--------------3p0------|
Eb|---------|------------------|----------------------|-----------------------|

Bridge/Solo Rhythm:
eb|---------------------------------------------------------------------------|
Bb|-3-3-3-3-3-3-3-3-3-3-3-3-3-3-3-3-3-3-3-3-3-3-3-3---------------------------|
F#|-2-2-2-2-2-2-2-2-2-2-2-2-2-2-2-2-2-2-2-2-2-2-2-2---------------------------|
C#|-0-0-0-0-0-0-3-3-3-3-3-3-0-0-0-0-0-0-0-0-0-0-0-0---------------------------|
G#|-0-0-0-0-0-0-0-0-0-0-0-0-3-3-3-3-3-3-0-0-0-0-0-0---------------------------|
Eb|-------------------------------------3-3-3-3-3-3---------------------------| 
   I keep busy evading all the law…


Solo - acoustic
eb|---------------------------------------------------------------------------|
Bb|---------------------------------------------------------------------------|
F#|-------------------10---10h12-12b-10---------------------------------------|
C#|-------10----10h12----12-------------12-10h12p10----10-------10-10---------|
G#|-10h12----12-------------------------------------12----10-12---------------|
Eb|---------------------------------------------------------------------------|

eb|---------------------------------------------------------------------------|
Bb|---------------------------------------------------------------------------|
F#|-10pb----10pb----10pb----10pb----10pb----10pb----10pb----5-5-5-5h7~~-------|
C#|------12------12------12------12------12------12------12-------------------|
G#|---------------------------------------------------------------------------|
Eb|---------------------------------------------------------------------------|

eb|-13p10----10---------------------------------------------------------------|
Bb|-------13----13-10-13p10----10---------------------------------------------|
F#|-------------------------12----12-10-12p10----10----------------10---------|
C#|-------------------------------------------12----12-10----10h12----12------|
G#|-------------------------------------------------------12------------------|
Eb|---------------------------------------------------------------------------|

eb|---------------------------------------------------------------------------|
Bb|------------------10-13p10-----10-13p10-----10-13p10-----10-13p10----------|
F#|-10-12-12b-10—12b----------12b----------12b----------12b-------------------|
C#|---------------------------------------------------------------------------|
G#|---------------------------------------------------------------------------|
Eb|---------------------------------------------------------------------------|

eb|---------------------------------------------------------------------------|
Bb|-----10-13p10-----10-13p10-----10-13p10-----10-13p10----10-----------------|
F#|-12b----------12b----------12b----------12b----------12----12-10-12-10-----|
C#|---------------------------------------------------------------------------|
G#|---------------------------------------------------------------------------|
Eb|---------------------------------------------------------------------------|

eb|---------------------------------------------------------------------------|
Bb|---------------------------------------------------------------------------|
F#|---------------------------------------------------------------------------|
C#|-12-10-12~~~---------------------------------------------------------------|
G#|---------------------------------------------------------------------------|
Eb|---------------------------------------------------------------------------|

Solo - electric
eb|-13b-10-------------------------|------------------------------------------|
Bb|--------13-10-------------------|------------------------------------------|
F#|--------------12-10----10~~~\---|---7p5---5--------------------------------|
C#|--------------------12----------|-------7---7-5-7p5---5-7-5-7~~~-----------|
G#|--------------------------------|-------------------7----------------------|
Eb|--------------------------------|------------------------------------------|

eb|-------------------------|-------------------------------------------------|
Bb|-----13------------------|-------------------------------------------------|
F#|-12b----12pb-10----------|-------------------------------------------------|
C#|----------------12-10-12-|----10----10----10h12p10----10----------10-12ph~~|
G#|-------------------------|-12----12----12----------12----12-10-12----------|
Eb|-------------------------|-------------------------------------------------|

Outro - acoustic
eb|-------------------0-------------------------------------------------------|
Bb|-------------------3-------------------------------------------------------|
F#|-----0-----0-------2-------------------------------------------------------|
C#|-----------------x-0-------------------------------------------------------|
G#|-2h3---2h3---2h3-x-0-------------------------------------------------------|
Eb|---------------------------------------------------------------------------|




************************************

| /   slide up
| \   slide down
| h   hammer-on
| p   pull-off
| ~   vibrato
| +   harmonic
| ph  Pinch Harmonic
| x   Mute note
| b   Bend
| pb  Pre-bend
| br  Bend release
| pbr Pre-bend release
| brb Bend release bend

************************************
Tap to rate this tab
# A B C D E F G H I J K L M N O P Q R S T U V W X Y Z