Song name
# A B C D E F G H I J K L M N O P Q R S T U V W X Y Z

Tyler Hilton - Youll Ask For Me tab

-------------------------------------------------------------------------------
Youll Ask For Me    Tyler Hilton
-------------------------------------------------------------------------------
Tabbed by: Ryan Marshall
Email: ryanmarshallll@hotmail.com

Tuning: The tuning is so you have an open F chord;
c A F C F C

The intro, verse and first half of the chorus is just a progression of these four chords:
c|-0--0--0--0- with the addition of this chord in the chorus  -0-|
A|-7--3--0--5-                                                -1-|
F|-0--0--0--0-                                                -0-|
C|-9--5--0--7-                                                -2-|
F|-9--5--0--7-                                                -2-|
C|-x--x--0--x-                                                -0-|

You can just cycle between these chords if you want but there are differences within 
each in the intro and verse shown below.

The chords used in the bridge are:

c|-0--0--0--0--0--0--0--0-|
A|-1--3--5--7--8--7--5--8-|
F|-0--0--0--0--0--0--0--0-|
C|-2--4--5--7--9--7--5--7-|
F|-2--4--5--7--9--7--5--7-|
C|-0--0--x--x--0--x--x--0-|

The strumming pattern is fairly simple so once you have it the song is easy to master.

Intro:
c|--0-0-0-0-0-0-0-0-0-0-0-0-0-0-0-0-0-0-0-0-0-0-0-0-0-0-0-0-0-0-0-0--|
A|o-7-7-7-7-7-7h8-7-3-3-3-3-3-3-5-5-0-0-0-0-1/3\1-0-5-5-5-5h7-7-7-7-o|
F|--0-0-0-0-0-0-0-0-0-0-0-0-0-0-0-0-0-0-0-0-0-0-0-0-0-0-0-0-0-0-0-7--|
C|--9-9-9-9-9-9-9-9-5-5-5-5-5-5-5-5-0-0-0-0-0-0-0-0-7-7-7-7-7-7-7-7--| x2
F|o-9-9-9-9-9-9-9-9-5-5-5-5-5-5-5-5-0-0-0-0-0-0-0-0-7-7-7-7-7-7-7-7-o|
C|--x-x-x-x-x-x-x-x-x-x-x-x-x-x-x-x-0-0-0-0-0-0-0-0-x-x-x-x-x-x-x-x--|

Verse:
c|--0-0-0-0-0-0-0-0-0-0-0-0-0-0-0-0-0-0-0-0-0-0-0-0-0-0-0-0-0-0-0-0--|
A|o-7-7-7-7-7-7-7-7-3h5-5-5-5-5-5-5-0-0-0-0-0-0-0-0-5-5-5-5h7-7-7-7-o|
F|--0-0-0-0-0-0-0-0-0-0-0-0-0-0-0-0-0-0-0-0-0-0-0-0-0-0-0-0-0-0-0-0--|
C|--9-9-9-9-9-9-9-9-5-5-5-5-5-5-5-5-0-0-0-0-0-0-0-0-7-7-7-7-7-7-7-7--| x3
F|o-9-9-9-9-9-9-9-9-5-5-5-5-5-5-5-5-0-0-0-0-0-0-0-0-7-7-7-7-7-7-7-7-o|
C|--x-x-x-x-x-x-x-x-x-x-x-x-x-x-x-x-0-0-0-0-0-0-0-0-x-x-x-x-x-x-x-x--|

Chorus
c|--0-0-0-0-0-0-0-0-0-0-0-0-0-0-0-0--|
A|o-7-7-7-7-3-3-3-3-0-0-0-0-5-5-5-5-o|
F|--0-0-0-0-0-0-0-0-0-0-0-0-0-0-0-0--|
C|--9-9-9-9-5-5-5-5-0-0-0-0-7-7-7-7--| x3
F|o-9-9-9-9-5-5-5-5-0-0-0-0-7-7-7-7-o|
C|--x-x-x-x-x-x-x-x-0-0-0-0-x-x-x-x--|

Wake up and ask for me by name..
c|--0-0-0-0-0-0-0-0-0-0-0-0-0-0-0-0--|
A|o-1-1-1-1-3h5-5-5-5h7-7-7-7-7-7-7-o|
F|--0-0-0-0-0-0-0-0-0-0-0-0-0-0-0-0--|
C|--2-2-2-2-5-5-5-5-7-7-7-7-7-7-7-7--| x2
F|o-2-2-2-2-5-5-5-5-7-7-7-7-7-7-7-7-o|
C|--0-0-0-0-x-x-x-x-x-x-x-x-x-x-x-x--|

c|--0-0-0-0-0-0-0-0-0-0-0-0-0-0-0-0-0-0-0-0-0-0-0-0-0-0-0-0-0-0-0-0--|
A|o-7-7-7-7-7-7h8-7-3-3-3-3-3-3-5-5-0-0-0-0-1/3\1-0-5-5-5-5h7-7-7-7-o|
F|--0-0-0-0-0-0-0-0-0-0-0-0-0-0-0-0-0-0-0-0-0-0-0-0-0-0-0-0-0-0-0-7--|
C|--9-9-9-9-9-9-9-9-5-5-5-5-5-5-5-5-0-0-0-0-0-0-0-0-7-7-7-7-7-7-7-7--|
F|o-9-9-9-9-9-9-9-9-5-5-5-5-5-5-5-5-0-0-0-0-0-0-0-0-7-7-7-7-7-7-7-7-o|
C|--x-x-x-x-x-x-x-x-x-x-x-x-x-x-x-x-0-0-0-0-0-0-0-0-x-x-x-x-x-x-x-x--|

c|--0-0-0-0-0-0-0-0-0-0-0-0-0-0-0-0-0-0-0-0-0-0-0-0-0-0-0-0-0-0-0-0--|
A|o-7-7-7-7-7-7-7-7-3h5-5-5-5-5-5-5-0-0-0-0-0-0-0-0-5-5-5-5h7-7-7-7-o|
F|--0-0-0-0-0-0-0-0-0-0-0-0-0-0-0-0-0-0-0-0-0-0-0-0-0-0-0-0-0-0-0-0--|
C|--9-9-9-9-9-9-9-9-5-5-5-5-5-5-5-5-0-0-0-0-0-0-0-0-7-7-7-7-7-7-7-7--| x3
F|o-9-9-9-9-9-9-9-9-5-5-5-5-5-5-5-5-0-0-0-0-0-0-0-0-7-7-7-7-7-7-7-7-o|
C|--x-x-x-x-x-x-x-x-x-x-x-x-x-x-x-x-0-0-0-0-0-0-0-0-x-x-x-x-x-x-x-x--|

c|--0-0-0-0-0-0-0-0-0-0-0-0-0-0-0-0--|
A|o-7-7-7-7-3-3-3-3-0-0-0-0-5-5-5-5-o|
F|--0-0-0-0-0-0-0-0-0-0-0-0-0-0-0-0--|
C|--9-9-9-9-5-5-5-5-0-0-0-0-7-7-7-7--| x3
F|o-9-9-9-9-5-5-5-5-0-0-0-0-7-7-7-7-o|
C|--x-x-x-x-x-x-x-x-0-0-0-0-x-x-x-x--|

Wake up and ask for me by name..
c|--0-0-0-0-0-0-0-0-0-0-0-0-0-0-0-0--|
A|o-1-1-1-1-3h5-5-5-5h7-7-7-7-7-7-7-o|
F|--0-0-0-0-0-0-0-0-0-0-0-0-0-0-0-0--|
C|--2-2-2-2-5-5-5-5-7-7-7-7-7-7-7-7--| x2
F|o-2-2-2-2-5-5-5-5-7-7-7-7-7-7-7-7-o|
C|--0-0-0-0-x-x-x-x-x-x-x-x-x-x-x-x--|

c|--0-0-0-0-0-0-0-0-0-0-0-0-0-0-0-0-0-0-0-0-0-0-0-0-0-0-0-0-0-0-0-0--|
A|o-7-7-7-7-7-7h8-7-3-3-3-3-3-3-5-5-0-0-0-0-1/3\1-0-5-5-5-5h7-7-7-7-o|
F|--0-0-0-0-0-0-0-0-0-0-0-0-0-0-0-0-0-0-0-0-0-0-0-0-0-0-0-0-0-0-0-7--|
C|--9-9-9-9-9-9-9-9-5-5-5-5-5-5-5-5-0-0-0-0-0-0-0-0-7-7-7-7-7-7-7-7--| x2
F|o-9-9-9-9-9-9-9-9-5-5-5-5-5-5-5-5-0-0-0-0-0-0-0-0-7-7-7-7-7-7-7-7-o|
C|--x-x-x-x-x-x-x-x-x-x-x-x-x-x-x-x-0-0-0-0-0-0-0-0-x-x-x-x-x-x-x-x--|

Bridge:
c|-0-0-0-0-0-0-0-0-0-0-0-0-0-0-0-0-0-0-0-0-0-0-0-0-0-0-0-0-0-0-0-0-|
A|-1-1-1-1-1-1-1-1-3-3-3-3-3-3-3-3-3-3h5-5-5-5-5-5-7-7-7-7-7-7-7-7-|
F|-0-0-0-0-0-0-0-0-0-0-0-0-0-0-0-0-0-0-0-0-0-0-0-0-0-0-0-0-0-0-0-0-|
C|-2-2-2-2-2-2-2-2-4-4-4-4-4-4-4-4-5-5-5-5-5-5-5-5-7-7-7-7-7-7-7-7-|
F|-2-2-2-2-2-2-2-2-4-4-4-4-4-4-4-4-5-5-5-5-5-5-5-5-7-7-7-7-7-7-7-7-|
C|-0-0-0-0-0-0-0-0-0-0-0-0-0-0-0-0-x-x-x-x-x-x-x-x-x-x-x-x-x-x-x-x-|

-0-0-0-0-0-0-0-0-0-0-0-0-0-0-0-0---0---0---0---0---0---0---0---0-0-0-0--|
-8-8-8-8-8-8-8-8-5-5-5-5-3-3-3-3---8---3---0---5---7---3---0---5-5-5-5--|
-0-0-0-0-0-0-0-0-0-0-0-0-0-0-0-0---0---0---0---0---0---0---0---0-0-0-0--|
-9-9-9-9-9-9-9-9-7-7-7-7-5-5-5-5---7---5---0---7---9---5---0---7-7-7-7--|
-9-9-9-9-9-9-9-9-7-7-7-7-5-5-5-5---7---5---0---7---9---5---0---7-7-7-7--|
-x-x-x-x-x-x-x-x-x-x-x-x-x-x-x-x---x---x---0---x---x---x---0---x-x-x-x--|

c|--0-0-0-0-0-0-0-0-0-0-0-0-0-0-0-0--|
A|o-7-7-7-7-3-3-3-3-0-0-0-0-5-5-5-5-o|
F|--0-0-0-0-0-0-0-0-0-0-0-0-0-0-0-0--|
C|--9-9-9-9-5-5-5-5-0-0-0-0-7-7-7-7--| x3
F|o-9-9-9-9-5-5-5-5-0-0-0-0-7-7-7-7-o|
C|--x-x-x-x-x-x-x-x-0-0-0-0-x-x-x-x--|



Wake up and ask for me by name..
c|--0-0-0-0-0-0-0-0-0-0-0-0-0-0-0-0--|
A|o-1-1-1-1-3h5-5-5-5h7-7-7-7-7-7-7-o|
F|--0-0-0-0-0-0-0-0-0-0-0-0-0-0-0-0--|
C|--2-2-2-2-5-5-5-5-7-7-7-7-7-7-7-7--| x2
F|o-2-2-2-2-5-5-5-5-7-7-7-7-7-7-7-7-o|
C|--0-0-0-0-x-x-x-x-x-x-x-x-x-x-x-x--|

c|--0-0-0-0-0-0-0-0-0-0-0-0-0-0-0-0-0-0-0-0-0-0-0-0-0-0-0-0-0-0-0-0--|
A|o-7-7-7-7-7-7h8-7-3-3-3-3-3-3-5-5-0-0-0-0-1/3\1-0-5-5-5-5h7-7-7-7-o|
F|--0-0-0-0-0-0-0-0-0-0-0-0-0-0-0-0-0-0-0-0-0-0-0-0-0-0-0-0-0-0-0-7--|
C|--9-9-9-9-9-9-9-9-5-5-5-5-5-5-5-5-0-0-0-0-0-0-0-0-7-7-7-7-7-7-7-7--| x2
F|o-9-9-9-9-9-9-9-9-5-5-5-5-5-5-5-5-0-0-0-0-0-0-0-0-7-7-7-7-7-7-7-7-o|
C|--x-x-x-x-x-x-x-x-x-x-x-x-x-x-x-x-0-0-0-0-0-0-0-0-x-x-x-x-x-x-x-x--|

c|-0--|
A|-7--|
F|-0--|
C|-9--|
F|-9--|
C|-x--|


************************************

| /   slide up
| \   slide down
| h   hammer-on
| p   pull-off
| ~   vibrato
| +   harmonic
| x   Mute note
| b   Bend
| pb  Pre-bend
| br  Bend release
| pbr Pre-bend release
| brb Bend release bend

************************************
Tap to rate this tab
 
# A B C D E F G H I J K L M N O P Q R S T U V W X Y Z