Song name
# A B C D E F G H I J K L M N O P Q R S T U V W X Y Z

Tyler Hilton - Next To You Acoustic tab

Tuning
CFCFAC

Intro:

c|-x----x---x-----|
A|-3----3---1-----|
F|-0----0---0-----|    x3
C|-0----4---2-----|
F|-0----0---0-----|
C|-x----x---x-----|

Verse:

C|--x-----0---0--0---0------x---0-------------|
A|--3-----3---3--1---3------3---3-------------|
F|--0-----0---0--0---0------0---0-------------|
C|--5-----0---4--2---0------5---0-------------|
F|--5-----0---0--0---0------5---0-------------|
C|--x-----x---x--x---x------x---x-------------|

Pre chorus

C|---0---x---0----x----0-------------|
A|---7---3---3----3----7-------------|
F|---0---0---0----0----0-------------|
C|---7---5---0----5----7-------------|
F|---7---5---0----5----7-------------|
C|---x---x---x----x----x-------------|


Chorus

C|-5--5--0--x----|
A|-3--3--8--3----|
F|-0--0--0--0----|  x2
C|-0--0--9--5----|
F|-0--5--9--5----|
C|-x--x--x--x----|

C|---x---x---x---------|
A|---3---5---3---------|
F|---0---0---0---------|
C|---0---5---5---------|
F|---4---5---5---------|
C|---x---x---x---------|

Interlude

C|--0---x---x---x--------------------|
A|--3---3---1---3--------------------|
F|--0---0---0---0--------------------|
C|--0---4---2---5--------------------|
F|--0---0---0---5--------------------|
C|--x---x---x---x--------------------|

VERSE
CHORUS

Bridge

C|--0--0--0------0---x---------------|
A|--3--5--3h5p3--3---5---------------|
F|--0--0--0------0---0---------------|
C|--3--5--5------3---5---------------|
F|--3--5--5------3---5---------------|
C|--x--x--x------x---x---------------|

CHORUS

OUTRO
"All I've ever wanted...."
C|--0--0--0--0-----------------------|
A|--8--7--5--3-----------------------|
F|--0--0--0--0-----------------------|   x2
C|--9--7--5--5-----------------------|
F|--9--7--5--5-----------------------|
C|--x--x--x--x-----------------------|


C|---0---x--x--x---0--x--x--x--------|
A|---3---3--1--3---3--3--1--3--------|
F|---0---0--0--0---0--0--0--0--------|
C|---0---4--2--5---0--4--2--5--------|
F|---0---0--0--5---0--0--0--5--------|
C|---x---x--x--x---x--x--x--x--------|

C|--x----x---0---|
A|--3----1---3---|
F|--0----0---0---|
C|--4----2---0---|
F|--0----0---0---|
C|--x----x---x---|
Tap to rate this tab
# A B C D E F G H I J K L M N O P Q R S T U V W X Y Z