Song name
# A B C D E F G H I J K L M N O P Q R S T U V W X Y Z

Tyler Read - Only Rock And Roll Can Save Us Now tab

-------------------------------------------------------------------------------
	     ONLY ROCK AND ROLL CAN SAVE US NOW - Tyler Read
-------------------------------------------------------------------------------
Tabbed by: Shard Heilia
Email: ShardNet@gmail.com

Tuning: Standard, down 1/2 step

Tyler Read's website: http://www.tylerread.com/


There's a lot of bends, so I'll explain my method of tabbing bends.

x(y) = Bend fret x to sound like fret y
(y)x = Start on fret x bent up to fret y, then release

And there's a bend in here that's held under another note, you'll see it. 
Listen to the song if you don't understand.




Intro:

Guitar 1:

eb|------------------------------------12(13)-(13)12-13-10-10h12p10-----------|
Bb|---------10-12-12(13)-(13)12--12-13-------------------------------13-------|
Gb|--12(14)-------------------------------------------------------------------|
Db|---------------------------------------------------------------------------|
Ab|---------------------------------------------------------------------------|
Eb|---------------------------------------------------------------------------|


eb|---------------------------------------------------------------------------|
Bb|-13-12-12h13p12-10--10--10-12--13--13(15)~---------------------------------|
Gb|---------------------------------------------------------------------------|
Db|---------------------------------------------------------------------------|
Ab|---------------------------------------------------------------------------|
Eb|---------------------------------------------------------------------------|


Guitar 2:

eb|--------------------7-8--10-10p8--8--7--7h8p7------------------------------|
Bb|-/6--6--8--10-10p8----------------------------10--10--8--8h10p8--6~--------|
Gb|---------------------------------------------------------------------------|
Db|---------------------------------------------------------------------------|
Ab|---------------------------------------------------------------------------|
Eb|---------------------------------------------------------------------------|

eb|---------------------------------------------------------------------------|
Bb|-6-6-6/8--8/10-10/12~~~----------------------------------------------------|
Gb|---------------------------------------------------------------------------|
Db|---------------------------------------------------------------------------|
Ab|---------------------------------------------------------------------------|
Eb|---------------------------------------------------------------------------|


Verse 1:

								
eb|---------------------------------------------------------------------------|
Bb|---------------------------------------------------------------------------|
Gb|-2-2--2-2-2----------------------------------------------------------------|
Db|-2-2--2-2-2--5-5-5-5-5---3--3-3-3---5-5-5-5-5------------------------------|
Ab|-0-0--0-0-0--5-5-5-5-5---3--3-3-3---5-5-5-5-5------------------------------|
Eb|-------------3-3-3-3-3---1--1-1-1---3-3-3-3-3------------------------------|


Lead fills:

A:

eb|---------------------------------------------------------------------------|
Bb|---------------------------------------------------------------------------|
Gb|-------------5~------------------------------------------------------------|
Db|-------5h6h7-----7~--------------------------------------------------------|
Ab|-5h6h7---------------------------------------------------------------------|
Eb|---------------------------------------------------------------------------|

B:

eb|---------------------------------------------------------------------------|
Bb|---------------------------------------------------------------------------|
Gb|----------5~---------------------------------------------------------------|
Db|---5-6-7-------------------------------------------------------------------|
Ab|-7-------------------------------------------------------------------------|
Eb|---------------------------------------------------------------------------|


Prechorus:

   
eb|---------------------------------------------------------------------------|
Bb|------8---------8----------------------------------------------------------|
Gb|-7(9)~~~~--7(9)~~~~~---(9)7p-5--------5----------5---5-7(8)~---------------|
Db|-------------------------------7~---7---7-5-7~-7---7-----------------------|
Ab|---------------------------------------------------------------------------|
Eb|---------------------------------------------------------------------------|

(~ = hold bend )


Verse 2:


eb|---------------------------------------------------------------------------|
Bb|---------------------------------------------------------------------------|
Gb|-2-2--2-2-2----------------------------------------------------------------|
Db|-2-2--2-2-2--5-5-5-5-5---3--3-3-3---5-5-5-5-5------------------------------|
Ab|-0-0--0-0-0--5-5-5-5-5---3--3-3-3---5-5-5-5-5------------------------------|
Eb|-------------3-3-3-3-3---1--1-1-1---3-3-3-3-3------------------------------|

Use fills A and B again.


Prechorus:


eb|---------------------------------------------------------------------------|
Bb|------8---------8----------------------------------------------------------|
Gb|-7(9)~~~~--7(9)~~~~~---(9)7p-5--------5----------5---5-7(8)~---------------|
Db|-------------------------------7~---7---7-5-7~-7---7-----------------------|
Ab|---------------------------------------------------------------------------|
Eb|---------------------------------------------------------------------------|

(~ = hold bend )


Chorus:


Guitar 1:

eb|------------------------------------12(13)-(13)12-13-10-10h12p10-----------|
Bb|---------10-12-12(13)-(13)12--12-13-------------------------------13-------|
Gb|--12(14)-------------------------------------------------------------------|
Db|---------------------------------------------------------------------------|
Ab|---------------------------------------------------------------------------|
Eb|---------------------------------------------------------------------------|


eb|---------------------------------------------------------------------------|
Bb|-13-12-12h13p12-10--10--10-12--13--13(15)~---------------------------------|
Gb|---------------------------------------------------------------------------|
Db|---------------------------------------------------------------------------|
Ab|---------------------------------------------------------------------------|
Eb|---------------------------------------------------------------------------|


Guitar 2:

eb|---------------------------------------------------------------------------|
Bb|---------------------------------------------------------------------------|
Gb|-------------------5-5-5-5--4-4-4--2-2-2-2---------------------------------|
Db|-3-3-3-3--5-5-5-5--5-5-5-5--4-4-4--2-2-2-2--5-5-5-5--3-3-3-3--5------------|
Ab|-3-3-3-3--5-5-5-5--3-3-3-3--2-2-2--0-0-0-0--5-5-5-5--3-3-3-3--5------------|
Eb|-1-1-1-1--3-3-3-3---------------------------3-3-3-3--1-1-1-1--3------------|


Solo:

eb|----------------------------------------------------------------5h8--------|
Bb|--7(8)-7(8)------------------7(8)-7(8)---------------------5h8-------------|
Gb|--7(8)-7(8)--7-5---5---------7(8)-7(8)-7-5---5---------5h7-----------------|
Db|-----------------7---7~--5-7---------------7---7~--5h7---------------------|
Ab|---------------------------------------------------------------------------|
Eb|---------------------------------------------------------------------------|

eb|-8/10(12)-10(12)-10p8------------------------8-8-8~------------------------|
Bb|-----------------------10-10~-10-10--8--10---------------------------------|
Gb|---------------------------------------------------------------------------|
Db|---------------------------------------------------------------------------|
Ab|---------------------------------------------------------------------------|
Eb|---------------------------------------------------------------------------|

eb|-8p7p5-8p7-8p7p5-8p7p5-8p7--10p8p7-10p8-10p8p7-10p8p7-10p7--12p10p8-12p10--|
Bb|---------------------------------------------------------------------------|
Gb|---------------------------------------------------------------------------|
Db|---------------------------------------------------------------------------|
Ab|---------------------------------------------------------------------------|
Eb|---------------------------------------------------------------------------|

eb|-12p10p8-12p10p8-12p10----12~-12-12~--13(15)-(15)-(15)-(15)~~~-------------|
Bb|---------------------------------------------------------------------------|
Gb|---------------------------------------------------------------------------|
Db|---------------------------------------------------------------------------|
Ab|---------------------------------------------------------------------------|
Eb|---------------------------------------------------------------------------|

Rhythm:

						(2x)
eb|---------------------------------------------------------------------------|
Bb|---------------------------------------------------------------------------|
Gb|-2-2--2-2-2----------------------------------------------------------------|
Db|-2-2--2-2-2--5-5-5-5-5---3--3-3-3---5-5-5-5-5------------------------------|
Ab|-0-0--0-0-0--5-5-5-5-5---3--3-3-3---5-5-5-5-5------------------------------|
Eb|-------------3-3-3-3-3---1--1-1-1---3-3-3-3-3------------------------------|


Verse 3:

eb|---------------------------------------------------------------------------|
Bb|---------------------------------------------------------------------------|
Gb|---------------------------------------------------------------------------|
Db|-3--5----------------------------------------------------------------------|
Ab|-3--5----------------------------------------------------------------------|
Eb|-1--3----------------------------------------------------------------------|

eb|---------------------------------------------------------------------------|
Bb|---------------------------------------------------------------------------|
Gb|-2-2--2-2-2----------------------------------------------------------------|
Db|-2-2--2-2-2--5-5-5-5-5---3--3-3-3---5-5-5-5-5------------------------------|
Ab|-0-0--0-0-0--5-5-5-5-5---3--3-3-3---5-5-5-5-5------------------------------|
Eb|-------------3-3-3-3-3---1--1-1-1---3-3-3-3-3------------------------------|


Final Chorus:

eb|---------------------------------------------------------------------------|
Bb|---------------------------------------------------------------------------|
Gb|-------------------5-5-5-5--4-4-4--2-2-2-2---------------------------------|
Db|-3-3-3-3--5-5-5-5--5-5-5-5--4-4-4--2-2-2-2--5-5-5-5--3-3-3-3--5------------|
Ab|-3-3-3-3--5-5-5-5--3-3-3-3--2-2-2--0-0-0-0--5-5-5-5--3-3-3-3--5------------|
Eb|-1-1-1-1--3-3-3-3---------------------------3-3-3-3--1-1-1-1--3------------|




Great new band, and it's a fun song to play. Enjoy.

Questions, comments, corrections to ShardNet@gmail.com.



| /  slide up
| \  slide down
| h  hammer-on
| p  pull-off
| ~  vibrato
| +  harmonic
| x  Mute note
===============================================================================
Tap to rate this tab
 
# A B C D E F G H I J K L M N O P Q R S T U V W X Y Z