Song name
# A B C D E F G H I J K L M N O P Q R S T U V W X Y Z

Tyler The Creator - Yonkers tab

This is my first tab so im still learning how to type everything out. The song is 
"Yonkers" by Tyler The Creator off of his second album "Goblin". I just sat down and figured 
all of this out and im pretty sure its 100% accurate.


This is the bass thats played throughout the song... pretty easy...

e|----------------------------------------------------|
B|----------------------------------------------------|
G|----------------------------------------------------|
D|----------------------------------------------------|
A|----------------------------------------------------|
D|1------------------------0--------------------------|
  (Ring out-------------------------------------------|


During the verses, I just played this in the background. You can strum both of them as 
many times as you want, it will probably sound sweet.

e|6------------------------5------------------------|
B|7------------------------6------------------------|
G|8------------------------7------------------------|
D|8------------------------7------------------------|
A|6------------------------5------------------------|
D|--------------------------------------------------|


And then for the chorus, you can play this picking part.

e|--6-7-6---6---6-6-7-6---6-------------------------|
B|4-----------------------------x3------------------|
G|--------------------------------------------------|
D|--------------------------------------------------|
A|--------------------------------------------------|
D|--------------------------------------------------|


and then on the last one...


e|--6-7-6---6---6-6-7-6---6-------------------------|
B|3-------------------------------------------------|
G|--------------------------------------------------|
D|--------------------------------------------------|
A|--------------------------------------------------|
D|--------------------------------------------------|


So yeah, i think that's pretty much it! Hope this helps out anyone who is curious on how 
to play this! Enjoy :)

OFWGKTA

-Brad

http://en.wikipedia.org/wiki/Tyler_the_Creator
http://oddfuture.com/
http://www.youtube.com/watch?v=XSbZidsgMfw
Tap to rate this tab
 
# A B C D E F G H I J K L M N O P Q R S T U V W X Y Z