Song name
# A B C D E F G H I J K L M N O P Q R S T U V W X Y Z

Tyler The Creator - Bastard tab

1st guitar (To make this part easier I put my capo on the 2nd fret)
Verse

E|-----------------------------------------------------------|
B|-----------------------------------------------------------|
G|-------3----3----3----3------------------------------------| X5
D|-------5----5----5----5------------------------------------|
A|-------5----5----5----5------------------------------------|
E|-----------------------------2-----------------------------|

Chorus (If you'll call it)
1st guitar
E|-------------------------------------------------------------------------------|
B|----------6----6----6----6----4----4----4----4----2----2----2----2-------------|
G|----------3----3----3----3----3----3----3----3----3----3----3----3-------------|
D|----------5----5----5----5----5----5----5----5----4----4----4----4-------------|
A|-------------------------------------------------------------------------------|
E|-------------------------------------------------------------------------------|

While 2nd guitar plays

E|-----------15--------------------18----------------18-----16------------------|
B|----------------------------------------------------------16------------------|
G|------------------------------------------------------------------------------|
D|------------------------------------------------------------------------------|
A|------------------------------------------------------------------------------|
E|------------------------------------------------------------------------------|

He pretty much repeats that the whole song.
Tap to rate this tab
 
# A B C D E F G H I J K L M N O P Q R S T U V W X Y Z