Song name
# A B C D E F G H I J K L M N O P Q R S T U V W X Y Z

Tyler The Creator - Sandwitches tab

Song: sanwitches(ft. Hodgy Beats)
Artist: Tyler the creator
        Odd Future
        Odd future wolf gang kill them all
Album: Goblin

This is my first tab ever. I just thought i'd do this song because it's all beats and 
sounds dope when you play them all together. like if you record them and play them back. 
that way you can have this instrumental without the
electronic beats. thanks, rate and like this shizz. odd future wolf gang.




intro:
e----------------------------------------|
2----------------------------------------|
3----8-8---------------------------------|       x4
4---------7-7----1-1--2-2----------------|
5----------------------------------------|
E----------------------------------------|

High pitched noise at(0:28)

e----------------------------------------|
2---16~----------------------------------|
3--------14~---8~---2~-------------------|
4-----------------------5~---------------|
5----------------------------------------|
E----------------------------------------|

e----------------------------------------|
2------------------16~-------------------|
3--2~----8~---14~------------------------|
4----------------------------------------|       x2
5----------------------------------------|
E----------------------------------------|

Base noise at (0:57)
e--------------------------------------------------|
2--------------------------------------------------|
3--------------------------------------------------|
4--------------------------------------------------|
5--------------------------------------------------|         x3
E---h11--11--/5-5-5-5-h6-/11-----------------------|

then play intro again at (1:09)
e----------------------------------------|
2----------------------------------------|
3----8-8---------------------------------|
4---------7-7----1-1--2-2----------------|
5----------------------------------------|       x2
E----------------------------------------|

then play base noise at(1:21)
e-------------------------------------------------|
2-------------------------------------------------|
3-------------------------------------------------|
4-------------------------------------------------|
5-------------------------------------------------|        x6
E---h11--11--/5-5-5-5-h6-/11----------------------|

the play intro at (1:54)
e----------------------------------------|
2----------------------------------------|
3----8-8---------------------------------|
4---------7-7----1-1--2-2----------------|
5----------------------------------------|       x3
E----------------------------------------|

then play base noise at (2:00)
e-----------------------------------------------|
2-----------------------------------------------|
3-----------------------------------------------|
4-----------------------------------------------|      x6
5-----------------------------------------------|
E---h11--11--/5-5-5-5-h6-/11--------------------|

then play this hew high pitched noise at (2:25)
e-------------------------------------------------------------------|
2-------------------------------------------------------------------|
3-16---16-16-16-16-16-16-16-16-16-16-16-16-16-16-16---14-13-13-/16--| x2
4-------------------------------------------------------------------|
5-------------------------------------------------------------------|
E-------------------------------------------------------------------|

e-----------------------------------------------------------------|
2-----------------------------------------------------------------|
3-16---16-16-16-16-16-16-16---------------------------------------|
4-----------------------------------------------------------------|
5-----------------------------------------------------------------|
E-----------------------------------------------------------------|

then you play the intro at (2:50)
e----------------------------------------|
2----------------------------------------|
3----8-8---------------------------------|
4---------7-7----1-1--2-2----------------|    x2
5----------------------------------------|
E----------------------------------------|
then you play the base noise at (3:03)
e-----------------------------------------------|
2-----------------------------------------------|
3-----------------------------------------------|
4-----------------------------------------------|
5-----------------------------------------------|      x3
E---h11--11--/5-5-5-5-h6-/11--------------------|

then you play the intro again at (3:16)
e----------------------------------------|
2----------------------------------------|
3----8-8---------------------------------|
4---------7-7----1-1--2-2----------------|
5----------------------------------------|      x1
E----------------------------------------|

then you play the new high pictched noise again
e--------------------------------------------------------------------|
2--------------------------------------------------------------------|
3-16---16-16-16-16-16-16-16-16-16-16-16-16-16-16-16---14-13-13-/16---|
4--------------------------------------------------------------------|  x2
5--------------------------------------------------------------------|
E--------------------------------------------------------------------|

e-----------------------------------------------------------------|
2-----------------------------------------------------------------|
3-16---16-16-16-16-16-16-16---------------------------------------|
4-----------------------------------------------------------------|
5-----------------------------------------------------------------|
E-----------------------------------------------------------------|

then you play the intro at (3:52)
e----------------------------------------|
2----------------------------------------|
3----8-8---------------------------------|
4---------7-7----1-1--2-2----------------|
5----------------------------------------|     x3
E----------------------------------------|

then at (4:19) you play this
e----------------------------------------|
2----------------------------------------|
3-16-16-16-16----------------------------|
4--------------1-1--2-2------------------|
5----------------------------------------|      x1
E----------------------------------------|

then you go to the intro at (4:25)
e----------------------------------------|
2----------------------------------------|
3----8-8---------------------------------|
4---------7-7----1-1--2-2----------------|
5----------------------------------------|
E----------------------------------------|

play that until the end where its all percussion.
Tap to rate this tab
 
# A B C D E F G H I J K L M N O P Q R S T U V W X Y Z