Song name
# A B C D E F G H I J K L M N O P Q R S T U V W X Y Z

Tyler The Creator - Ny Ned Flander tab

Piano Riff
e-------------12----12----------|
B----14-11----------------------|
G-11-------12----12----12-------|
D-------------------------------|
A-------------------------------|
E-------------------------------|

Chorus Chords
  Gm7  Ebm EbM7 Ebm
e--10---6---6---6-------|
B--11---7---8---7-------|
G--10---8---7---8-------|
D--12---8---8---8-------|
A--10---6---6---6-------|
E-----------------------|

Piano Chorus Riff
   Gm7
e----10----------------------|
B-------11----------11-------|
G----------12----12----------|
D-12----------13-------13----|
A----------------------------|
E----------------------------|

   Ebm
e-11-------------------11----|
B----11-------------11-------|
G-------11----8--11----------|
D-----------9----------------|
A----------------------------|
E----------------------------|

   EbM7
e----10----------------------|
B-------11--------11---------|
G--------------12------------|
D-12--------12--------13--12-|
A----------------------------|
E----------------------------|

   Ebm
e----11----------------------|
B-------11--------11---------|
G-11---------8-11----8-------|
D----------9-----------------|
A----------------------------|
E----------------------------|

Tabbed by: Jared Scherer
FEED GOD CABBAGE

	
Tap to rate this tab
 
# A B C D E F G H I J K L M N O P Q R S T U V W X Y Z