Song name
# A B C D E F G H I J K L M N O P Q R S T U V W X Y Z

Tyler The Creator - Rella tab

Intro riff
I'd recommend distortion and delay throughout.
e----------------------------|
B----------------------------|
G-------------------9~-------|
D----------------------------|
A-0h7--0h7--0h7--0-----------|
E----------------------------|

Main Riff
e----------------------------|
B----------------------------|
G----------------------------|
D----------------------------|
A-7-8-7-----7-8-7------------|
E-------7-7-------7-10-------|

Riff at 1:03
e----------------------------|
B----------------------------|
G----------------------------|
D----------------------------|
A--7--------8----7-----------|
E--5----7--------------------|

Synth line
Heard at 0:35 and 2:05
e-----------------------5-7-8-10-----------|
B------------------------------------------|
G-----------------9~----2-4-5-7------------|
D------------------------------------------|
A---7~------------7~-----------------------|
E---0~-------------------------------------|

Tabbed by: Jared Scherer
FEED GOD CABBAGE
Tap to rate this tab
# A B C D E F G H I J K L M N O P Q R S T U V W X Y Z