Song name
# A B C D E F G H I J K L M N O P Q R S T U V W X Y Z

Tyler The Creator - Answer tab

probably more accurate than all the others decide for yourself

E---------------------------------------------|
A----8----------------------------------------|
D-----7---------------------------------------|
G-------5-------------------------------------|
B---------5-8-------9-------------------------|
e--------------5-8----------------------------|

E---------------------------------------------|
A----8----------------------------------------|
D-----7---------------------------------------|
G-------5-------------------------------------|
B---------5-8-------9-------------------------|
e--------------5-8----------------------------|

E---------------------------------------------|
A----5----------------------------------------|
D-----7---------------------------------------|
G-------5-------------------------------------|
B---------5-8-------9-------------------------|
e--------------5-8----------------------------|

E---------------------------------------------|
A----5----------------------------------------|
D-----7---------------------------------------|
G-------5-------------------------------------|
B---------5-8-------9-------------------------|
e--------------5-8----------------------------|

E---------------------------------------------|
A----5----------------------------------------|
D-----7---------------------------------------|
G-------6-------------------------------------|
B---------5-8-------9-------------------------|
e--------------5-8----------------------------|
Tap to rate this tab
 
# A B C D E F G H I J K L M N O P Q R S T U V W X Y Z