Song name
# A B C D E F G H I J K L M N O P Q R S T U V W X Y Z

Tyler Ward - The Rescue tab

This is based off his tutorial video of "The Rescue". You can watch the video 
here: http://www.youtube.com/watch?v=m5L6bVUoJM4

The tuning is in: DADAAd

Strumming:
d = Down
u = Up

Intro/Verse:
d|------0---0---0--------0-------5--4--0---0---0--|
A|-----0-0-0-0-0--------0-------0-------0-0-0-0---|
A|----0---0---0--------0-------0---------0---0----|
D|------------------------------------------------|
A|------------------------------------------------|
D|--9---------------4-------5---------------------|

Chorus - I am captivated by...:

    d  d  u
d|--0--0--0--| Repeat x4
A|--0--0--0--|
A|--0--0--0--|
D|--9--9--9--|
A|--9--9--9--|
D|--9--9--9--|

 The way you look tonight...:

    d  d  u
d|--0--0--0--| Repeat x4
A|--0--0--0--|
A|--0--0--0--|
D|--5--5--5--|
A|--5--5--5--|
D|--5--5--5--|

The chorus and pre-chorus (the one before the big chorus) goes in this pattern, however 
there is one part he does which is when he goes to the 7th fret. You can watch his video 
to refer to what I am talking about.

Note: This is still Chorus 1/Pre-chorus
d|--0--|
A|--0--|
A|--0--|
D|--7--|
A|--7--|
D|--7--|

Chorus 2 (big one) I'm only going to show the chords for this one, if you really need 
the strumming pattern please comment:
d|--0--0--0--0--0--0--|
A|--0--0--0--0--0--0--|
A|--0--0--0--0--0--0--|
D|--0--4--5--9--7--5--|
A|--0--4--5--9--7--5--|
D|--0--4--5--9--7--5--|

Outro (this part is in piano):
d|------0---0-------0-------0--------0---0--------0-------0-------0---0-----0-|
A|-----0-0-0-------0-------0--------0-0-0--------0-------0-------0-0-0-----0--|
A|----0---0-------0-------0--------0---0--------0-------0-------0---0-----0---|
D|----------------------------------------------------------------------------|
A|--9----------9-------7-------10-----------10-------7--------9----------9----|
D|----------------------------------------------------------------------------|

Continued...

d|-------0-------0---0---0---0--| Repeating is your choice.
A|------0-------0-0-0-0-0-0-0---|
A|-----0-------0---0---0---0----|
D|------------------------------|
A|--7-------5-------------------|
D|------------------------------|

Thanks! Don't forget to rate, comment, and post corrections (if necessary!) :)
Tap to rate this tab
 
# A B C D E F G H I J K L M N O P Q R S T U V W X Y Z