Song name
# A B C D E F G H I J K L M N O P Q R S T U V W X Y Z

Tyler Ward - Let Her Go tab

E|--17--19--17--15--17--15--------------15------17--19--17--15--17--17--19--17--17---15--|
B|--------------------------17--17--15---------------------------------------------------|
G|---------------------------------------------------------------------------------------|
D|---------------------------------------------------------------------------------------|
A|------------------------------------------15-------------------------------------------|
E|---------------------------------------------------------------------------------------|
||
E|------------------------------------------8-------------------7------------------2-----|
B|------------------1-----------------------8-------------------9------------------3-----|
G|------------------0-----------------------9-------------------9------------------2-----|
D|------------------2-----------------------10------------------9------------------0-----|
A|------------------3-----------------------10------------------7------------------------|
E|------------------------------------------8--------------------------------------------|



E|--17--19--17--15--17--15--------------15------|
B|--------------------------17--17--15----------|
G|----------------------------------------------|
D|----------------------------------------------|
A|-----------------------------------------15---|
E|----------------------------------------------|
||
E|-----------------------------------------3----|
B|------------------1----------------------3----|
G|------------------0----------------------0----|
D|------------------2----------------------0----|
A|------------------3----------------------2----|
E|-----------------------------------------3----|
Tap to rate this tab
# A B C D E F G H I J K L M N O P Q R S T U V W X Y Z