Song name
# A B C D E F G H I J K L M N O P Q R S T U V W X Y Z

Type O Negative - Summer Breeze tab

Band:Type O Negative
Song:Summer Breeze
Note: This tab is a mix of bass and guitar, but as you know it could be played on both 
instrument. Also this is not the whole tabs for the song.


|-----------------------------------------------------|
|-----------------------------------------------------|
|-----------------------------------------------------|
|-----------------------------------------------------|
|--------5--2----0------------------------------------|
|--0--3--------------3--2hm3hm0-0--0--1--3---1--3/sl--|


|-------------------------------------------|
|-------------------------------------------|
|-------------------------------------------|
|-------------------------------------------|
|--------5--2----0--------------------------|
|--0--3---------------3--2hm3hm0-0--0--1--3-|


|-------------|
|-------------|
|-------------|
|-------------|
|-5-5-3-7/sl--|
|-3-3-1-5/sl--|


|-----------------------------------------------------|
|-----------------------------------------------------|
|-----------------------------------------------------|
|-----------------------------------------------------|
|--------5--2----0------------------------------------|
|--0--3--------------3--2hm3hm0-0--0--1--3---1--3/sl--|


|-------------------------------------------|
|-------------------------------------------|
|-------------------------------------------|
|-------------------------------------------|
|--------5--2----0--------------------------|
|--0--3---------------3--2hm3hm0-0--0--1--3-|


|-------------|
|-------------|
|-------------|
|-------------|
|-5-5-3-7/sl--|
|-3-3-1-5/sl--|


|-----------------------------------------------------------|
|-----------------------------------------------------------|
|-----------------------------------------------------------|
|------------------5/sl-7--7--------------------------------|
|-2--2--3/sl-5--5--3/sl-5--5--7--7--2---x--5/sl--333-3/sl-7-|
|-0--0--1/sl-3--3-------------5--5--0---x--3/sl--111-5/sl-5-|
                                                 XXX



|----------------------------------------------------------|
|----------------------------------------------------------|
|----------------------------------------------------------|
|------------------5/sl-7--7---------------9/sl-555-7/sl-9-|
|-2--2--3/sl-5--5--3/sl-5--5--7--7--2---x--7/sl-333-5/sl-7-|
|-0--0--1/sl-3--3-------------5--5--0---x--x----xxx--------|
                                                XXX




|------------------------------------------------------------------|
|------------------------------------------------------------------|
|------------------------------------------------------------------|
|------------------------------------------------------------------|
|-7---7--7--7--7--7-5-7-8-9--9--9--9--9--9-7-6-7-5---5-555/sl-7--7-|
|-5---5--5--5--5--5-3-5-6-7--7--7--7--7--7-5-4-5-3---3-333/sl-5--5-|
      X  X  X  X             X  X  X     x x x x       XX



|---------------|
|---------------|
|---------------|
|---------------|
|-77-2--22--2---|
|-55-0--00--0---|
  XX    XX


That's all I'm going to put down right now, cuz the song itself it long as hell. If you 
get this tab, than you will get the rest of the song.
Tap to rate this tab
# A B C D E F G H I J K L M N O P Q R S T U V W X Y Z