Song name
# A B C D E F G H I J K L M N O P Q R S T U V W X Y Z

Type O Negative - She Burned Me Down tab

Band: Type O Negative
Album: Dead Again
Song: She Burned Me Down
Tuning: BEADF#B
=============================================================
Notes
+ Intro solo is just my best guess. Please feel free to email me or add any solo parts
in the comments. I will be sure to add you as a contributing tabber.
+ Sorry, I couldn't get the solo at 6:14. If me or another member can figure it out then
I will add it in an update.
=============================================================

Intro
B |------------------------|------------------------|
F#|------------------------|------------------------|
D |--8b-88v--11b---11/13bv-|-8b8v---11/13v----15br--|
A |------------------------|------------------------|
E |------------------------|------------------------|
B |------------------------|------------------------|

B |------------------------|-----0--------------|
F#|------------------------|-----9----------9v--|
D |--8b-88v--11b---11/13bv-|-8-11---11-8--------|
A |------------------------|--------------------|
E |------------------------|--------------------|
B |------------------------|--------------------|

B |-------------------------|
F#|--7^9^7------------------|
D |--------6-8-6-8----------|
A |----------------9-8-9-6--|
E |-------------------------|
B |-------------------------|

B |--------------------------|------------------------|
F#|--------------------------|------------------------|
D |--13b-13-/16--/19b---20b--|--13b-13-/16--/19--16b--|
A |--------------------------|------------------------|
E |--------------------------|------------------------|
B |--------------------------|------------------------|

B |--------------------------|---------------------21b-19v--|
F#|--------------------------|--21-21-21b^19----------------|
D |--13b-13-/16--/19b---20b--|---------------20-20----------|
A |--------------------------|------------------------------|
E |--------------------------|------------------------------|
B |--------------------------|------------------------------|

The note at the 2nd fret on the D string is occasionally accented with a wah effect.
B |------------------------------------------------|
F#|------------------------------------------------|
D |-----2----2-----2----2-----2----2---------------|
A |--4-4-4--4-4-0-0-0--0-0-4-4-4--4-4----4-----4---|
E |-----------------------------------0-0-0-2-2-2--|
B |------------------------------------------------|

B |------------------------------------------------|
F#|------------------------------------------------|
D |-----2----2-----2----2-----2----2---------------|
A |--4-4-4--4-4-0-0-0--0-0-4-4-4--4-4----4-----4---|
E |-----------------------------------0-0-0-2-2-2--|
B |------------------------------------------------|

She burned me down . . . down to the ground
B |------------------------------------------------|
F#|------------------------------------------------|
D |-----2----2-----2----2-----2----2---------------|
A |--4-4-4--4-4-0-0-0--0-0-4-4-4--4-4----4-----4---|
E |-----------------------------------0-0-0-2-2-2--|
B |------------------------------------------------|

She burned me down . . . down to the ground
B |------------------------------------------------|
F#|------------------------------------------------|
D |-----2----2-----2----2-----2----2---------------|
A |--4-4-4--4-4-0-0-0--0-0-4-4-4--4-4----4-----4---|
E |-----------------------------------0-0-0-2-2-2--|
B |------------------------------------------------|

Blood, though thicker than water, is harder to clean up
B |-----------<5>-----------------<5>sustain to next lyric-|
F#|--------5----------------------<5>----------------------|
D |--6^4^6-------------------------------------------------|
A |--------------------------------------------------------|
E |--------------------------------------------------------|
B |--------------------------------------------------------|

You'll get it in the end boy if the weapon of choice is love
B |-<5>------------------------------------------------|
F#|-<5>------------------------------------------------|
D |----------------------------------------------------|
A |----------------------------------------------------|
E |-----------------------xx---------------------------|
B |-------------------//12xx---------------------------|
              Slide to 12th fret and then pick slide up

Expecting it from a stranger or maybe an acquaintance
B |------------------------|---------------------------|
F#|------------------------|--------9br9---------------|
D |---------9v-------------|-------------9v------------|
A |--11^9^11---------------|-11^9^11-------------------|
E |------------------------|---------------------------|
B |------------------------|---------------------------|

Never from family or friends though a simple mistake and expense
B |------------------------|-----------------------------------|
F#|------------------------|--------9br9-----------------------|
D |---------9v-------------|-------------9v--------------------|
A |--11^9^11---------------|-11^9^11---------------------------|
E |------------------------|-----------------------------------|
B |------------------------|-----------------------------------|

She burned me down . . . down to the ground
B |------------------------------------------------|
F#|------------------------------------------------|
D |-----2----2-----2----2-----2----2---------------|
A |--4-4-4--4-4-0-0-0--0-0-4-4-4--4-4----4-----4---|
E |-----------------------------------0-0-0-2-2-2--|
B |------------------------------------------------|

She burned me down . . . down to the ground
B |------------------------------------------------|
F#|------------------------------------------------|
D |-----2----2-----2----2-----2----2---------------|
A |--4-4-4--4-4-0-0-0--0-0-4-4-4--4-4----4-----4---|
E |-----------------------------------0-0-0-2-2-2--|
B |------------------------------------------------|

Pissed and disappointed I prey to learn to forgive
B |-----------<5>-----------------<5>sustain to next lyric-|
F#|--------5----------------------<5>----------------------|
D |--6^4^6-------------------------------------------------|
A |--------------------------------------------------------|
E |--------------------------------------------------------|
B |--------------------------------------------------------|

If I can't find it in my heart then I have no reason to live
B |-<5>------------------------------------------------|
F#|-<5>------------------------------------------------|
D |----------------------------------------------------|
A |----------------------------------------------------|
E |-----------------------xx---------------------------|
B |-------------------//12xx---------------------------|
              Slide to 12th fret and then pick slide up

Here is an education, the lesson professed is quite cruel
B |-------------------|---------------------------------|
F#|-------------------|--------9br9---------------------|
D |---------9v--------|-------------9v------------------|
A |--11^9^11----------|-11^9^11-------------------------|
E |-------------------|---------------------------------|
B |-------------------|---------------------------------|

There are some things worse than death and one of them is you
B |------------------------------------|-----------------------|
F#|------------------------------------|--------9br9-----------|
D |---------9v-------------------------|-------------9v--------|
A |--11^9^11---------------------------|-11^9^11---------------|
E |------------------------------------|-----------------------|
B |------------------------------------|-----------------------|

B |-----------------------------------------------------------|
F#|------------------222222-22222-----------------------------|
D |---666666-66666-----------------444444-44444--44444-44444--|
A |-----------------------------------------------------------|
E |-------------------------------0-------------4-------------|
B |--7--------------2-----------------------------------------|

Every time I see her start a fire I get higher
(Bass arranged for guitar.)
B |------------------------------------------------|
F#|------------------------------------------------|
D |------------------------------------------------|
A |------------------------------------------------|
E |------------------------------------------------|
B |--7--------2---------------5-----------9--------|

B |------------------------------------------------|-----------|
F#|------------------------------------------------|-----------|
D |------------------------------------------------|-----------|
A |------------------------------------------------|-----------|
E |------------------------------------------------|--//xx-----|
B |--7--------2---------------5-----------9--------|--//xx-----|


Every time I see her start a fire I get higher (@3:08)
B |-------------------------------|
F#|-------------------------------|
D |-------------------------------|
A |-------------------------------|
E |--9----8----7------6--4--2--4--|
B |--7----6----5------4--2--0--2--|

Every time I see her start a fire I get higher
(Bass arranged for guitar. @3:23)
B |------------------------------------------------|-----------|
F#|------------------------------------------------|-----------|
D |------------------------------------------------|-----------|
A |------------------------------------------------|-----------|
E |------------------------------------------------|--//xx-----|
B |--7--------2---------------5-----------9--------|--//xx-----|

B |-----------------------------------------------------------|
F#|------------------222222-22222-----------------------------|
D |---666666-66666-----------------444444-44444--44444-44444--|
A |-----------------------------------------------------------|
E |-------------------------------0-------------4-------------|
B |--7--------------2-----------------------------------------|

Every time I see her start a fire I get higher
(@3:52 the D string notes are played with an eBow or sustainer)
B |------------------------------------------------|
F#|------------------------------------------------|
D |--<6>----------------------/<4>-------/<9>------|
A |------------------------------------------------|
E |------------------------------------------------|
B |--7--------2---------------5-----------9--------|

B |------------------------------------------------|-----------|
F#|------------------------------------------------|-----------|
D |--<9>------/<6>-------------/<4>----------------|-----------|
A |------------------------------------------------|-----------|
E |------------------------------------------------|--//xx-----|
B |--7--------2---------------5-----------9--------|--//xx-----|

Every time I see her start a fire I get higher (@4:21)
B |-------------------------------|
F#|-------------------------------|
D |-------------------------------|
A |-------------------------------|
E |--9----8----7------6--4--2--4--|
B |--7----6----5------4--2--0--2--|

Every time I see her start a fire I get higher (@4:35)
B |------------------------------------------------|-----------|
F#|------------------------------------------------|-----------|
D |--<6>----------------------/<4>-------/<9>------|-----------|
A |------------------------------------------------|-----------|
E |------------------------------------------------|--//xx-----|
B |--7--------2---------------5-----------9--------|--//xx-----|

@4:49
B |---------------------------------------------------------------|
F#|---------------------------------------------------------------|
D |---------------------------------------------------------------|
A |-4-----4--6-----6--------------------6-666/8888/9999/11111111--|
E |-2--4--2--4--4--4--4--6--7--6--2--4--4-444/6666/7777/9-9-9-9---|
B |----2--------2-----2--4--5--4--0--2----------------------------|
                                         PM*   **   **   * * *

@5:02 bass arranged for guitar. Play the bass notes from above riff.
Play two times
B |------------------------------------------------|
F#|------------------------------------------------|
D |------------------------------------------------|
A |------------------------------------------------|
E |--2---2-4---4-------------4-444/6666/7777/9999--|
B |----2-----2---2-4-5-4-0-2-----------------------|

@5:31
B |-----------------------------------------------------------------|
F#|-----------------------------------------------------------------|
D |-----------------------------------------------------------------|
A |-4-----4--------------------------------6-666/8888/9999/11111111-|
E |-2--4--2--4b--4--4b--4--6------6--2--4--4-444/6666/7777/9-9-9-9--|
B |----2---------2------2--4--5b--4--0--2---------------------------|
                                         PM*   **   **   * * *

@5:45 Play two times
B |------------------------------------------------|
F#|------------------------------------------------|
D |------------------------------------------------|
A |------------------------------------------------|
E |--2---2-4---4-------------4-444/6666/7777/9999--|
B |----2-----2---2-4-5-4-0-2-----------------------|

@6:14 Solo Rhythm. Play two times
B |-----------------------------------------------------------------|
F#|-----------------------------------------------------------------|
D |-----------------------------------------------------------------|
A |-4-----4--------------------------------6-666/8888/9999/11111111-|
E |-2--4--2--4b--4--4b--4--6------6--2--4--4-444/6666/7777/9-9-9-9--|
B |----2---------2------2--4--5b--4--0--2---------------------------|
                                         PM*   **   **   * * *

@6:42
Every time I see her start a fire I get higher (@4:21)
B |-------------------------------|
F#|-------------------------------|
D |-------------------------------|
A |-------------------------------|
E |--9----8----7------6--4--2--4--|
B |--7----6----5------4--2--0--2--|

Play chord 8 times with palm mutes
B |------------------------------------------------|
F#|------------------------------------------------|
D |------------------------------------------------|
A |------------------------------------------------|
E |--999999999/44444444/77777777/1111111111111111--|
B |--777777777/22222222/55555555/9-9-9-9-9-9-9-9---|

B |-----------------------------------------------------------------|
F#|-----------------------------------------------------------------|
D |-----------------------------------------------------------------|
A |-4-----4--------------------------------6-666/8888/9999/11111111-|
E |-2--4--2--4b--4--4b--4--6------6--2--4--4-444/6666/7777/9-9-9-9--|
B |----2---------2------2--4--5b--4--0--2---------------------------|
                                         PM*   **   **   * * *

Every time I see her start a fire I get higher
(Bass arranged for guitar.)
Play two times
B |------------------------------------------------|
F#|------------------------------------------------|
D |------------------------------------------------|
A |------------------------------------------------|
E |------------------------------------------------|
B |--7--------2---------------5-----------9--------|
Tap to rate this tab
 
# A B C D E F G H I J K L M N O P Q R S T U V W X Y Z