Guitaretab - guitar tabs
Song name
# A B C D E F G H I J K L M N O P Q R S T U V W X Y Z

Type O Negative - Are You Afraid tab

"Are You Afraid?"
Type O Negative
Origen Of the Fecies
tabed by: Erik Tuttle (

i didnt like how previously the only tab of this song
was in D tunning so i got out the 'ol guitar and this
is what i got:

Tunning: (B E A D F# b)

Part A (Keyboard part):
b |-------------------------------------------|
D |*--7----5----12---10---7----5-------------*|
A |*--------------------------------5--------*|
E |---5----3----10---8----5----3--------------|
B |---------------------------------3---------|
     A    G    D    C    A    G    D
[ Tab from: ]
Part B:			      first time second time
b |--5-5-5-5-3-3-3-3-3-3-3-3-|1-1-------|--1-1-1-1---|
D |--------------------------|----------|------------|
A |--------------------------|----------|------------|
E |--------------------------|----------|------------|
B |--------------------------|----------|------------|

Part C:
b |--3-3-3-3-3-3-3-3-3-3-3-3-3-3-3-3--|
D |-----------------------------------|
A |-----------------------------------|
E |-----------------------------------|
B |-----------------------------------|

__Structure__ (you should know this):
Keyboard part A (a few times)
Part B          (most of the time time)
Part C		(at the end)
Related for Are You Afraid tab