Guitaretab - guitar tabs
Song name
# A B C D E F G H I J K L M N O P Q R S T U V W X Y Z

Type O Negative - Angry Inch tab

Artist: Type O Negative
Album: Life Is Killing Me
Song: Angry Inch
Tabbed by D-Rock (drockny@yahoo.com)

h - hammer on 
p - pull off 
b - bend string up
r - release bend
/ - slide up
\ - slide down
~ - vibrato 
x - play 'note' with heavy damping
* - artificial harmonic

Type-O tuning from low to high (B,E,A,D,F#,B)

This is the cover song TON did for LIKM taken from the "Hedwig And The Angry Inch"
musical. Personally I think they could have come up with a better song to do, but it
sounds pretty cool nonetheless.  

INTRO: 
(Heavy Dist. w/ feedback)          "Oooooohhhhhhh..."  (2 times)
||------------------------------------|------------------------------||
||--*14(slight bend)------------------|------------------------------||
||------------------------------------|------------------------------||  
||----------------------11(strum)----|--4--4/7----------------------||
||----------------------11------------|--4--4/7----------------------||
||----------------------9-------------|--2--2/5--5--4--5--4--5-------||


VERSE: (Keep the dist. up)
  "Sex change operation got botched..."  (2 times)
||---------------------------------------------------------||
||---------------------------------------------------------||
||---------------------------------------------------------||
||--11-----------------------------------------------------||
||--9---------12-------9----7------------------------------||
||------------10-------7----5---5-5-5-44-4--2-------------||


Chorus: 
  "Six inches forward..."     (2 times)
||-----------------------------------------||
||-----------------------------------------||
||-----------------------------------------||  
||----4-----------4/7----------------------||
||----4-----------4/7----------------------||
||----2-----------2/5--5--4--5--4--5-------||



2nd and 3rd VERSES: (Josh adds some sweet keyboard licks) 


[ Tab from: http://www.guitaretab.com/t/type-o-negative/54453.html ]
2nd Chorus: (Extension)
  "Six inches forward...the train is coming and I'm tied to the track..." 
||-------------------------------------------------------------------||
||-------------------------------------------------------------------||
||-------------------------------------------------------------------||
||-------------------------------------------------------------------||
||--11----11--9--7----7--9-------------------------------------------||
||--9-----9---7--5----5--7--9(pick scrape)--------------------------||
||--------------------------7---------------5-4-5-4-5-4-5-4-5-4----||


BRIDGE: (Light Dist. with some Chorus)
  "A long story short:..."                (2 times)
||------------------------------------------------|
||------------------------------------------------|
||--------13--------13---------13---------11------|
||-----13--------13---------13---------11---------|
||--11--------------------------------------------|
||------------12---------14---------10------------|

  (Back to a muddy dist.)
||---------------------------------------------------------------|
||---------------------------------------------------------------|
||---------------------------------------------------------------|
||-(pick scrape)-------------------------------------------------|
||------------------------------/7-5-7------------------/7-5-7---|
||---------------1b--p0--5-4-3-----------1b--p0--5-4-3-----------|

||-----------------------------------------------------------|
||-----------------------------------------------------------|
||-----------------------------------------------------------|
||-----------------------------------------------------------|
||-----------------/7-5-7---------------555555555555555------|
||--1b--p0--5-4-3-----------1b--p0-5-4-333333333333333------|


Repeat 2nd Chorus tab

Ending 
  "Angry inch, angry inch, angry inch..."
||-------------------------------------------------------------|
||-------------------------------------------------------------|
||-------------------------------------------------------------|
||--------------------------------------------------4(strum)--|
||--(pick scrape)------------------------(3 times)--4----------|
||-----------------5-4-5-4-5-4-5-4--5--4------------2----------|


Outro
                                                           (w/feedback)
||--------------------------------------------------------------------|
||--------------------------------------------------------------------|
||--------------------------------------------------------------11~---|
||------------------4-------8-------9-------10------------------------|
||(pick scrape)-------------------------------------------------------|
||---------------2-----2/6-----6/7-----7/8------8/9--2b-2-----------|



Well there you have it. Any questions/comments feel free to email me.
Enjoy!

"Around the Pyre, a circle of thirteen
Throughout these woods, ecstatic screams!"
Related for Angry Inch tab