Song name
# A B C D E F G H I J K L M N O P Q R S T U V W X Y Z

Type O Negative - Dream Is Dead tab

Title: Dream Is Dead (Intro)
Artist: Type O Negative
Album:

Instrument: Guitar

Tabbed by: Daniel Bloor (daniel.bloor@ntlworld.com)

Tuning: Standard (E A D G B E)

Didn't see a tab for this intro that was very correct, me and my friends love it so I
thought i'd try write one. Cya, e-mail me any mistakes.

A.Murov sent me an e-mail because originally i used 9-8-7 on A, instead of 4-3-2 on D, 
since this is easier i edited the tab, thanks dude :)


E|-------------------------------------------------------------------||
B|-------------------------------------------------------------------||
G|-------------------------------------------------------------------||
D|------------4-3-2----------------------------------4-3-2-----------||
A|-------------------3/4-7-4-7-----------------------------3/4-7-4-7-||
E|---1/2-2--1--------------------3/4-5-4---0/1-2-2-1-----------------||

E|----------------||
B|----------------||
G|----------------||
D|----------------||
A|----------------||
E|--3/4-5-4-------||
Tap to rate this tab
# A B C D E F G H I J K L M N O P Q R S T U V W X Y Z