Song name
# A B C D E F G H I J K L M N O P Q R S T U V W X Y Z

Type O Negative - I Dont Wanna Be Me tab

Artist:Type O Negative.
Album:The Best Of Type O Negative.
Tab:Lopez017


NOTE: This Tab Is For The Rythim Guitar Therefor The Solo Is Not Here.

E --------|---------------------------------|---------------------------------|
B --------|---------------------------------|---------------------------------|
G ---<9>\-|---------------------------------|---------------------------------|
D --x-----|---------------------------------|---------------------------------|
A -x------|-6-6-6-6-6-6-6-6-6-6-6-6-6-6-6-6-|-6-6-6-6-6-6-6-6-6-6-6-6-6-6-\---|
E --------|-4-4-4-4-4-4-4-4-4-4-4-4-4-4-4-4-|-4-4-4-4-4-4-4-4-4-4-4-4-4-4-\---|


E -----------------|-----------------|---------------|---------------|
B -----------------|-----------------|---------------|---------------|
G -----------------|-----------------|---------------|---------------|
D -----------------|-----------------|---------------|---------------|
A -2-2-2-2-2-2-2-2-|-4-4-4-4-4-4-4-4-|-6-6-6-6-6-6-6-|-4-4-4-4-4-4-4-|
E -0-0-0-0-0-0-0-0-|-4-4-4-4-4-4-4-4-|-4-4-4-4-4-4-4-|-4-4-4-4-2-2-2-|

E -----------------|-----------------|---------------|-----------------|
B -----------------|-----------------|---------------|-----------------|
G -----------------|-----------------|-----------drumbreak-------------|
D -----------------|-----------------|---------------|-----------------|
A -2-2-2-2-2-2-2-2-|-4-4-4-4-4-4-4-4-|->6-->6-R------|-R---------------|
E -0-0-0-0-0-0-0-0-|-4-4-4-4-4-4-4-4-|->4-->4-R------|-R----------x\---|
   P.M.----------------------------------------------------------------|

RIFF A

guitar 1

E -----------------|-----------------|---------------|-----------------|
B -----------------|-----------------|---------------|-----------------|
G -----------------|-----------------|---------------|-----------------|
D -----------------|-----------------|---------------|-----------------|
A -2-2-2-2-2-2-2-2-|-4-4-4-4-4-4-4-4-|-6-6-6-6-6-6-6-|-4-4-4-4-4-4-4---|
E -0-0-0-0-0-0-0-0-|-4-4-4-4-4-4-4-4-|-4-4-4-4-4-4-4-|-4-4-4-4-2-2-2---|
   P.M.----------------------------------------------------------------|


guitar 2
with probably flanger-effect note
E -----------------------------------------|---|-------------------------------|
B -----------------------------------------|---|-------------------------------|
G -/8----------/8----------/8--------------|---|--/8----------/8---------------|
D -------9~----------9~----------9-8~---8-<9>\-|--------9~--------9-8~---------|
A ---------------------------------------------|------------------------9--<---|
E ---------------------------------------------|-------------------------------|

RIFF A2

E -----------------|-----------------|---------------|---------------|
B -----------------|-----------------|---------------|---------------|
G -----------------|-----------------|---------------|---------------|
D -----------------|-----------------|---------------|-4-4-4-4-------|
A -2---2-2-2-2-2-2-|-4---4-4-4-4-4-4-|-6---6-6-6-6-6-|-4-4-4-4-4-4-4-|
E -0---0-0-0-0-0-0-|-4---4-4-4-4-4-4-|-4---4-4-4-4-4-|-4-4-4-4-2-2-2-|


RIFF A3

E -----------------|-----------------|--------------|-------------|
B -----------------|-----------------|--------------|-------------|
G -----------------|-----------------|--------------|-------------|
D -----------------|-----------------|--------------|-------------|
A -2---2-2-2-2-2-2-|-4---4-4-4-4-4-4-|--------------|-------------|
E -0---0-0-0-0-0-0-|-4---4-4-4-4-4-4-|-444555777888-|-99-1010-11--|

INTERLUDE

keyboard part written out for guitar:

E --------------------------------------------------------|
B -11/-/-/-14~--------------14-\-\-13-\-\-12~-------------|
G --------------------------------------------------------|
D -8-/-/-/-11~--------------11-\-\-10-\-\-9~--------------|
A --------------------------------------------------------|
E --------------------------------------------------------|

SOLO guitar 2

over riff A2 and A3 by guitar 1

END RIFF

E -----------------|-----------------|---------------|
B -----------------|-----------------|---------------|
G -----------------|-----------------|---------------|
D -----------------|-----------------|---------------|
A -2---2-2-2-2-2-2-|-4---4-4-4-4-4-4-|->6-->6-R------|
E -0---0-0-0-0-0-0-|-4---4-4-4-4-4-4-|->4-->4-R------|
Tap to rate this tab
# A B C D E F G H I J K L M N O P Q R S T U V W X Y Z