Song name
# A B C D E F G H I J K L M N O P Q R S T U V W X Y Z

Type O Negative - We Were Electrocute tab

Help us improve GuitareTab! Take a short survey!
Tabbed by Robin Graves

I'm not putting in the hammer on's and pull offs, but they're easy to hear.

B--------------------------------------------|
F#--12~-12-10-8-10-8~---12~--12-~-12-10-8-8~-|
D---------------------9-----9----------------|
A--------------------------------------------|
E--------------------------------------------|
B--------------------------------------------|

B----------------------------------------------|
F#--12~-12-10-8-10-8~---12~---12~-12-10-8-8~---|
D---------------------9-----9------------------|
A----------------------------------------------|
E----------------------------------------------|
B----------------------------------------------|


B---------------------------------------------------------|
F#--12~-12-10-8-10-8~---12~---12-13-15--------------------|
D---------------------9-----9----------12~-12-12-12-12-12-|
A---------------------------------------------------------|
E---------------------------------------------------------|
B---------------------------------------------------------|
Related for We Were Electrocute tab