Song name
# A B C D E F G H I J K L M N O P Q R S T U V W X Y Z

Type O Negative - Less Than 0 tab

G-----------------------|
D--0--2-----------------|     SEVERAL TIMES
A-----------------------|
D-----------------------|

E---------------------|
B---------------------|
G---------------------|
D--0---2--------------|        SEVERAL TIMES
A--0---2--------------|
D--0---2--------------|



E--5-7-10-9-7-5-4--0-------------|
B--------------------3-0---------|
G--------------------------------|
D--------------------------------|
A--------------------------------|
D--------------------------------|
Tap to rate this tab
# A B C D E F G H I J K L M N O P Q R S T U V W X Y Z