Song name
# A B C D E F G H I J K L M N O P Q R S T U V W X Y Z

Type O Negative - Thir13teen tab

Help us improve GuitareTab! Take a short survey!
-----------------------------------------------------------------------------
			     Thir13teen - Type O Negative
-----------------------------------------------------------------------------
Tabbed by: dnmetalhed
Email: dnmetalhed@aol.com

This is my first tab, hope it is of any help to anyone.

Tuning:B,E,A,D,F#,B

1|----------------------------------------------------------------------------|
2|----------------------------------------------------------------------------|
3|----------------------------------------------------------------------------|
4|----------------------------------------------------------------------------|
5|-2--52---5/875--875---2---52---5/12-11-10--12-11-10---9---14/7--12/5--10/9--|
6|-0--30---3/653--653---0---30---3/10-9--8---10-9--8----7---12/5--10/3--8/-7~-|


                 (play this 2x)
1|---------------------------------------------------------------------------|
2|---------------------------------------------------------------------------|
3|---------------------------------------------------------------------------|
4|---------------------------------------------------------------------------|
5|-9-10-11-12-13------------------xxx--2-------------------------------------|
6|-7-8--9--10-11------------------xxx--0-------------------------------------|
   . .  .  .  . (light palm mute)

| /  slide up
| \  slide down
| h  hammer-on
| p  pull-off
| ~  vibrato
| +  harmonic
| x  Mute note
=============================================================================
Related for Thir13teen tab