Song name
# A B C D E F G H I J K L M N O P Q R S T U V W X Y Z

Type O Negative - The Profit Of Doom tab

-----------------------------------------------------------------------------
			     SONG NAME - Band Name
-----------------------------------------------------------------------------
Tabbed by:dnmetalhed
Email:dnmetalhed@aol.com

Well, this song hasn't been tabbed, so I decided to try it out myself. This is my second 
so if any corrections are needed, please e-mail me. I didn't tab the solo towards the 
of the song but ill continue to work on it. ENJOY!!!!

Tuning:BEADF'B


 (Play 4x)
1-----------------------------------------------------------------|
2----------------17-----------------------------------------------|
3-----------9/15----15/9------------------------------------------|
4---------8--------------8--------444--------555------------------|
5-------7------------------7------222-scrape-333-scrape-----------|
6-/-0-6----------------------6------------------------------------|

 "Good buy, crule world!"
1-----------------------------------------------------------------|
2-----------------------------------------------------------------|
3-----------------------------------------------------------------|
4--------5------------------------5----5/9h10p9h10p9h10p9---------|
5-0--3/7---6~5~-5h6p5/3---0--3/7---6~5----------------------------|
6-----------------------------------------------------------------|


1-----------------------------------------------------------------|
2-----------------------------------------------------------------|
3-----------------------------------------------------------------|
4--------5-----------------888xx888xx-----------------------------|
5-0--3/7---6~5~-5h6p5/3----666xx666xx-----------------------------|
6-----------------------------------------------------------------|

 " Of this shape....."
 " believe not......."
1-----------------------------------------------------------------|
2-----------------------------------------------------------------|
3-----------------------------------------------------------------|
4-7----------88-77---543------------------------------------------|
5--7---7^7~~-66-55---321------------------------------------------|
6----5------------------------------------------------------------|

 Main riff
1-----------------------------------------------------------------|
2-----------------------------------------------------------------|
3-----------------------------------------------------------------|
4---979--0-0--979---979--------979--------------------------------|
5-----------------0------10-10------------------------------------|
6-7---------------------------------------------------------------|

 "April 2029....."
 "It's a friday 13th....."
 "So now the....."
 "This Stone....."
1-----------------------------------------------------------------|
2-----------------------------------------------------------------|
3-----------------------------------------------------------------|
4------------------------------------------------4--(feedback)----|
5--99999999-1212121212121212-77777777-55555555---2----------------|
6--77777777-1010101010101010-55555555-33333333--------------------|
   . . . . . . . . . . . . . . . . . . . . . . (palm mute)
  (05:29)
  (06:20)
  (07:10)
  (08:17)
1-----------------------------------------------------------------|
2-----------------------------------------------------------------|
3-----------------------------------------------------------------|
4----6-9-9/16-----6--6/9-9\6-6/9-9--------------------------------|
5-4--4-7-7/14-7/4-4--4/7-7\8-8/7-7--------------------------------|
6-2-----------5/2-------------------------------------------------|

 (07:44)
 (08:10 only first half.)
1-----------------------------------------------------------------|
2-----------------------------------------------------------------|
3-----------------------------------------------------------------|
4-13-12-11-10/13-12-11-10----13-12-11-10/13-12-11-10--------------|
5-11-10-9--8-/11-10-9--8-----11-10-9--8-/11-10-9--8---------------|
6-----------------------------------------------------------------|

 (08:00)
1-----------------------------------------------------------------|
2-----------------------------------------------------------------|
3-----------------------------------------------------------------|
4-----------------------------------------------------------------|
5-12-11-10-9/12-11-10-9-------------------------------------------|
6-10-9--8--7/10-9--8--7-------------------------------------------|

(solo)

| /  slide up
| \  slide down
| h  hammer-on
| p  pull-off
| ~  vibrato
| +  harmonic
| x  Mute note
Tap to rate this tab
 
# A B C D E F G H I J K L M N O P Q R S T U V W X Y Z