Song name
# A B C D E F G H I J K L M N O P Q R S T U V W X Y Z

Type O Negative - Tripping A Blind Man tab

"Tripping a Blind Man"
From DEAD AGAIN by Type O Negative
Tab by Raza Mahmood
Tune guitars 2.5 steps below standard
Low to high: B,E,A,D,F#,b

NOTES:
+=bend; %=repeat measure; pm=palm mute

I.  INTRO (Keys only)


2nd time with full band:
"Aaaaaahhh!"
              pick slide, fdbk        
b ||--------------------------||
F#||--------------------------||
D ||--------------------------||
A ||-2----------X\--(2)-------||
E ||-2----------X\--(2)-------||
B ||-0----------X\--(0)-------||

  SLOW!
||----------------------------------------|
||----------------------------------------|
||----------------------------------------|
||----------------------------------------|
||----------------------------------------|
||-/12\---0--3--0--/5--0--/6--0--/5--0--3-|

|----------------------------------------||
|----------------------------------------||
|----------------------------------------||
|----------------------------------------||
|----------------------------------------||
|-0--3--0--/5--0--/6--0--/7--0--10+-(10)-||

II.  VERSE (faster)

||-------|-
||-------|
||-------|
||-bass--|
||-------|
||-------|--


"Say the word                     I'll be healed"
"Opened eyes                      grease my wheels"
  pm.....................|        pm.....................|
||-------------------------------|-------------------------------||
||-------------------------------|-------------------------------||
||-------------------------------|-------------------------------||
||-------------------------------|-------------------------------||
||-----------------------------0-|-----------------------------0-||
||-2-2-2-2-2-2-2-2-2-2-2-2-0^2---|-2-2-2-2-2-2-2-2-2-2-2-2-0^2---||

"Since my vision's     been restored..."
||--------------------------------------------------------------||
||--------------------------------------------------------------||
||--------------------------------------------------------------||
||-7--7--7----/16---\4------------------------------------------||
||-5--5--5----/14---\2--------------------0-------------------0-||
||------------------------2--2--2--2--0^2-----2--2--2--2--0^2---||

"Trip me once                      shame on you"
"Trip me twice                     I'm the fool            
  pm.....................|        pm.....................|
||-------------------------------|-------------------------------||
||-------------------------------|-------------------------------||
||-------------------------------|-------------------------------||
||-------------------------------|-------------------------------||
||-----------------------------0-|-----------------------------0-||
||-2-2-2-2-2-2-2-2-2-2-2-2-0^2---|-2-2-2-2-2-2-2-2-2-2-2-2-0^2---||

"Thought it's hidden, I've been cured"
||-------------------------------------------------------||
||-------------------------------------------------------||
||-------------------------------------------------------||
||-7--7--7----/16---\4-----------------------------------||
||-5--5--5----/14---\2--------------------0------------X-||
||------------------------2--2--2--2--0^2-----2--2--2--X-||

                       "Patience is divine..."
                       "Turn your cheek..."
||-------|------------------------------14--14--14--||
||-------|------------------------------16+-16+-16+-||
||-------|----------------11--11--11----------------||
||-------|----------------13+-13+-13+---------------||
||-4-5-6-|-7----6----5------------------------------||
||-2-3-4-|-5----4----3------------------------------||

                  (4 times)
||-----------------------||
||-----------------------||
||-----------------------||
||-----------------------||
||---------------------0-||
||-2---2---2---2---0^2---||

 "This is how                     you spend life"
 "Amused by                       another's strife       makes me..."
  pm.....................|        pm.....................|
||-------------------------------|-------------------------------||
||-------------------------------|-------------------------------||
||-------------------------------|-------------------------------||
||-------------------------------|-------------------------------||
||-----------------------------0-|-----------------------------0-||
||-2-2-2-2-2-2-2-2-2-2-2-2-0^2---|-2-2-2-2-2-2-2-2-2-2-2-2-0^2---||

 "so sad               and confused"            
||--------------------------------------------------------------||
||--------------------------------------------------------------||
||--------------------------------------------------------------||
||-7--7--7----/16---\4------------------------------------------||
||-5--5--5----/14---\2--------------------0-------------------0-||
||------------------------2--2--2--2--0^2-----2--2--2--2--0^2---||

"Someone's pain                   your leisure"
"Can't explain                    sick pleasure             I'm so..."
  pm.....................|        pm.....................|
||-------------------------------|-------------------------------||
||-------------------------------|-------------------------------||
||-------------------------------|-------------------------------||
||-------------------------------|-------------------------------||
||-----------------------------0-|-----------------------------0-||
||-2-2-2-2-2-2-2-2-2-2-2-2-0^2---|-2-2-2-2-2-2-2-2-2-2-2-2-0^2---||

" glad                 I'm not you"
||-------------------------------------------------------||
||-------------------------------------------------------||
||-------------------------------------------------------||
||-7--7--7----/16---\4-----------------------------------||
||-5--5--5----/14---\2--------------------0------------X-||
||------------------------2--2--2--2--0^2-----2--2--2--X-||

                       "Patience is divine..."
                       "Turn your cheek..."
||-------|------------------------------14--14--14--||
||-------|------------------------------16+-16+-16+-||
||-------|----------------11--11--11----------------||
||-------|----------------13+-13+-13+---------------||
||-4-5-6-|-7----6----5------------------------------||
||-2-3-4-|-5----4----3------------------------------||


III.  BRIDGE
Half-time feel
Guitar 2 follows the vocal line

                  pm..          pm..
||--------------------------------------------------------||
||--------------------------------------------------------||
||--------------------------------------------------------||
||-------9--9/11-------9--9/11-------9-11--11/14---9-9^11-||
||-----7-------------7-------------7----------------------||
||-7^9-------------9-------------9------------------------||

  "Throwing wrenches..."      "
  "You think it's your place..."
||----------------------------------|
||----------------------------------|
||----------------------------------|
||-11-------------------------------|
||--9-------------------------------|
||----------------------------------|
|
| Gtr 2
| with wah
||----------------------------------|
||--------------------9-9-9---------|
||-11-11-11-11---11-9-------11-9----|
||-------------------------------11-|
||----------------------------------|
||----------------------------------|

    "What started sweet will soon turn"
    "Well I've been sent to judge"
||----------------------------------|
||----------------------------------|
||----------------------------------|
||-11-------------------------------|
||--9-------------------------------|
||------------------X---------/12\--|
|
|
|
|
||----------------------------------|
||----------------------9---12------|
||--------11-11-9-11--9-------------|
||----------------------------------|
||----------------------------------|
||----------------------------------|

  "sour                 oh so sour." 
  "the judges."  
||--------------------------------------------------------||
||--------------------------------------------------------||
||--------------------------------------------------------||
||-------9--9/11-------9--9/11-------9-11--11/14---9-9^11-||
||-----7-------------7-------------7----------------------||
||-7^9-------------9-------------9------------------------||
|
|
|
|
||--------------------------------------------------------||
||--------------------------------------------------------||
||-11+(11)-9----------------------------------------------||
||-------------------------9-9-9/11-----------------------||
||--------------------------------------------------------||
||--------------------------------------------------------||

"Goddamn love cause...                      I'd see in..."
||------------------------------------------------------||
||------------------------------------------------------||
||-------------------------13--13-----------------------||
||-13------------------13--11-------9------9/11----\----||
||-11------------------11--9-------7------7/-9----\-----||
||------------------------------------------------------||
|
|
|
|
||-------------------------------------------------------||
||-12\11-\9-------------9-9------------------------------||
||----------11--11-11-9-----11--13---9------9/11----\----||
||------------11-----------------------------------------||
||-------------------------------------------------------||
||-------------------------------------------------------||

CHORUS:
wah pedal off

"Trippin' a blind man"
||----------------------------------||
||----------------------------------||
||------6-------6-------6-------6---||
||----6-------6-------4-------6-----||
||-4-------6-------2-------4--------||
||----------------------------------||

REPEAT BRIDGE & CHORUS

IV.  ENDING
  (Triplet feel, faster.   4 times)
||-------------------------|---|---|-------------||
||-------------------------|---|---|-------------||
||-------------------------|-%-|-%-|-------------||
||-4^6-6-6-6-6-------------|-%-|-%-|-8--7----6-4-||
||-------------------------|---|---|-6--5----4-2-||
||-------------2^4-4-4-4-4-|---|---|-------------||

"Losing grip on...
||-------------------|---|---|---||
||-------------------|---|---|---||
||-------------------|-%-|-%-|-%-||
||-------------------|-%-|-%-|-%-||
||-----4-2----5---4\-|---|---|---||
||-4-----------------|---|---|---||

"Sanitation truck...
||-------------------|---|---|---||
||-------------------|---|---|---||
||-8-----------------|-%-|-%-|-%-||
||-6---6-6----6---6--|-%-|-%-|-%-||
||-6---4-2----5---4\-|---|---|---||
||-------------------|---|---|---||

"Canine spot..."
||-------------------------|---|---|-------------||
||-------------------------|---|---|-------------||
||-------------------------|-%-|-%-|-------------||
||-4^6-6-6-6-6-------------|-%-|-%-|-8--7----6-4-||
||-------------------------|---|---|-6--5----4-2-||
||-------------2^4-4-4-4-4-|---|---|-------------||

"As they left..."
||-------------------|---|---|---||
||-------------------|---|---|---||
||-------------------|-%-|-%-|-%-||
||-------------------|-%-|-%-|-%-||
||-----4-2----5---4\-|---|---|---||
||-4-----------------|---|---|---||

"EMS responded..."
||-------------------|---|---|---||
||-------------------|---|---|---||
||-8-----------------|-%-|-%-|-%-||
||-6---6-6----6---6--|-%-|-%-|-%-||
||-6---4-2----5---4\-|---|---|---||
||-------------------|---|---|---||

 
                                       (2 times)
||-------------------------|---|---|-------------||
||-------------------------|---|---|-------------||
||-------------------------|-%-|-%-|-------------||
||-4^6-6-6-6-6-------------|-%-|-%-|-8--7----6-4-||
||-------------------------|---|---|-6--5----4-2-||
||-------------2^4-4-4-4-4-|---|---|-------------||


IV.  OUTRO
                       "Patience is divine..."
                       "Turn your cheek..."
||-------|------------------------------14--14--14--||
||-------|------------------------------16+-16+-16+-||
||-bass--|----------------11--11--11----------------||
||-only--|----------------13+-13+-13+---------------||
||-------|-7----6----5------------------------------||
||-------|-5----4----3------------------------------||

||------------------------||
||------------------------||
||------------------------||
||----2--4------6--9--11--||
||-4--0--2------4--7--9\--||
||-2----------------------||
Tap to rate this tab
# A B C D E F G H I J K L M N O P Q R S T U V W X Y Z