Song name
# A B C D E F G H I J K L M N O P Q R S T U V W X Y Z

Type O Negative - These Three Things tab

Help us improve GuitareTab! Take a short survey!
"These Three Things"
From DEAD AGAIN by Type O Negative
Tab by Raza Mahmood
Tune guitar 2.5 steps below standard
Low to high: B,E,A,D,F#,b

NOTES: The intro almost requires a sustainer pickup to play properly.
+=bend; X\=pick slide downward; X/=pick slide upward;
n.h.=natural harmonics

I.  Intro

(SLOW!)
             fdbk                   fdbk
b ||----------------------------------------------|
F#||----------------------------------------------|
D ||----------------------------------------------|
A ||----------------------------------------------|
E ||-7\---------------------5^7\-3---(3)-----X\---|
B ||----2-----(2)-----4+---------------------X\---|

           fdbk                    fdbk
|-----------------------------------------------|
|-----------------------------------------------|
|-----------------------------------------------|
|-----------------------------------------------|
|-7\----------------------5^7\-3---(3)-----X/---|
|----2-----(2)------4+---------------------X/---|

              fdbk                  fdbk
|-----------------------------------------------|
|-----------------------------------------------|
|-----------------------------------------------|
|-8--8--9--8------------------------------------|
|-9--9--9--9---(9)---------5^7\-3---(3)-----X\--|
|-------------------4+----------------------X\--|

           fdbk                    fdbk
|----------------------------------------------|
|----------------------------------------------|
|----------------------------------------------|
|----------------------------------------------|
|-7\----------------------5^7\-3---(3)-----X/--|
|----2-----(2)------4+---------------------X/--|


II. VERSE

   (volume swells)
||--------------------------------||
||--------------------------------||
||--14\-------------12\-----------||
||--------------------------------||
||--------------------------------||
||--------------------------------||

Guitar Dist.
   "Hey hey hey   hey..."
||----------------------------------------------------------------||
||----------------------------------------------------------------||
||-14-14-14-14-14-14-14-14-14-14-14-14-14-12-12-12-12-12-12-12-12-||
||-0--0--0--0--0--0--0--0--0--0--0--0--0--0--0--0--0--0--0--0--0--||
||----------------------------------------------------------------||
||----------------------------------------------------------------||

Clean guitar tone
  "At the end..."
  "The dark one's forces..."
||----------------------------------------------------------------||
||----------------------------------------------------------------||
||-14-14-14-14-14-14-14-14-14-14-14-14-14-12-12-12-12-12-12-12-12-||
||-0--0--0--0--0--0--0--0--0--0--0--0--0--0--0--0--0--0--0--0--0--||
||----------------------------------------------------------------||
||----------------------------------------------------------------||

Guitar Dist.
"To murder the ones..."
           fdbk.     
||-----------------------||
||-----------------------||
||-14-------(14)---------||
||-0--------(0)----------||
||-------------------X\--||
||-------------------X\--||

Clean tone
  "There are two other things..."
||----------------------------------------------------------------||
||----------------------------------------------------------------||
||-14-14-14-14-14-14-14-14-14-14-14-14-14-12-12-12-12-12-12-12-12-||
||-0--0--0--0--0--0--0--0--0--0--0--0--0--0--0--0--0--0--0--0--0--||
||----------------------------------------------------------------||
||----------------------------------------------------------------||


||--------------------------------------||
||--------------------------------------||
||--------------------------------------||
||-3-----------3/5----5-------------5---||
||-1-----------1/3----5-------------3---||
||--------------------3-----------------||
|
|
|
|Gtr. 2
||--------------------------13-15-15\---||
||--------------------------------------||
||-12-14-10-----------12-14-------------||
||----------12-10/12--------------------||
||--------------------------------------||
||--------------------------------------||


||----------------------------------------------------||
||----------------------------------------------------||
||----------------------------------------------------||
||-3------------3/5----5-------------5----------------||
||-1------------1/3----5-------------3----------------||
||---------------------3------------------------------||
|
|
|
|
||----------------------10-----10---------------------||
||----------------------------------------------------||
||-12-14-10----------12+-----12+---12+(12)-10---------||
||----------12-10/12-------------------------12-10^12-||
||----------------------------------------------------||
||----------------------------------------------------||

CHORUS:
  "Hey hey hey hey..."
                                     fdbk
||------------------------------------------|
||------------------------------------------|
||------------------------------------------|
||-7.-7.-7.-7.--10-10-7--5/7--10-----(10)---|
||-5.-5.-5.-5.--8--7--5--3/5--8------(8)-\--|
||---------------------------------------\--|

  "Hey hey hey hey..."
                                     fdbk
|--------------------------------------------||
|--------------------------------------------||
|--------------------------------------------||
|-7.-7.-7.-7.--10-10-7--5/7--5------(5)------||
|-5.-5.-5.-5.--8--7--5--3/5--5------(5)---X\-||
|----------------------------3------(3)---X\-||

REPEAT VERSE

REPEAT CHORUS

REPEAT INTRO

III.  MIDDLE PART

Clean gtr tone with delay
   n.h...........................|
||------------------------------------------------------||
||------------------------------------------------------||
||---------------------------------------------0-0-0-0--||
||-----(5)-------------(5)-----------3-3--------3-3-3-3-||
||-(4)-----(5)-----(4)-----(5)-------3-3----------------||
||-----------------------------(5)---0-1----------------||

"On a land...                               ...the sun"
"So alien...                                ...Area 51"
"Should there be...                         ...Zion"
"What came as a lamb...                     ...Lion"
     pm..     ....    .....     .      ...
||-----------------------------------------|---|-----------------||
||-----------------------------------------|---|-----------------||
||-----------------------------------------|-%-|----0---0-0-0-0--||
||-----------------------------------------|-%-|----5----3-3-3-3-||
||-7--7-7--7--7-7--7--7-7-7--5--5-5/7--7-7-|---|-----------------||
||-5--5-5--5--5-5--5--5-5-5--3--3-3/5--5-5-|---|-1---------------||

               
Distortion on 
                        pm                                    (2 times)
||--------------------------|---|-----------------------------------||
||--------------------------|---|-----------------------------------||
||--------------------------|-%-|------0-------0-------0---0-0-0-0--||
||--------------------------|-%-|------5-------5-------5----3-3-3-3-||
||-7---7---5-7---5--5/7-----|---|--------3-------3-------3----------||
||-5---5---3-5---3--3/5-X-X-|---|-1-1------1-1-----1-1--------------||

"Not a nation..."
"Since the year..."
"The road to redemption..."
"Rocky though..."
                        pm                                    
||--------------------------|---|-----------------------------------||
||--------------------------|---|-----------------------------------||
||--------------------------|-%-|------0-------0-------0---0-0-0-0--||
||--------------------------|-%-|------5-------5-------5----3-3-3-3-||
||-7---7---5-7---5--5/7-----|---|--------3-------3-------3----------||
||-5---5---3-5---3--3/5-X-X-|---|-1-1-----1-1------1-1--------------||

ONE MEASURE OF BASS,DRUMS, & KEYS ONLY

"I am the duel..."
"He brought Alpha..."
"The Twins fell..."
"So the whore too..."
||--------------------------|---|-----------------------------------||
||--------------------------|---|-----------------------------------||
||--------------------------|-%-|------0-------0-------0---0-0-0-0--||
||--------------------------|-%-|------5-------5-------5----3-3-3-3-||
||-7---7---5-7---5--5/7-----|---|--------3-------3-------3----------||
||-5---5---3-5---3--3/5-X-X-|---|-1-1------1-1-----1-1--------------||
|
|
|
|Gtr 2. Clean tone
||--------------------------|---|-----------------------------------||
||--------------------------|---|-----------------------------------||
||-------7------------------|-%-|-------7---------------------------||
||-----7--------------------|-%-|----5------------------------------||
||---5----------------------|---|-3---------------------------------||
||-5------------------------|---|-----------------------------------||

                       "All his people..."
                                                     fdbk
||------------------------------------------------------------||
||------------------------------------------------------------||
||-14-14-14-14-14-14-14-14-12-12-12-12-12-12-12-12---(12)-----||
||-0--0--0--0--0--0--0--0--0--0--0--0--0--0--0--0-------------||
||--------------------------------------------------------X\--||
||--------------------------------------------------------X\--||

"I'm a Christian!" (Keyboard solo)
"All his people..."
"Through forgiveness..."
||---------------------------------------------------------------|
||---------------------------------------------------------------|
||---------------------------------------------------------------|
||-7-7--7-7-7-7-7-7--7-7-7-7-7-7--7-7--7\5-5-5-5-5--12--12-10-10-|
||-3/5--5-5-5-5-3/5--5-5-5-5-3/5--5-5--5\3-3-3-3-3--10--10--8-7--|
||---------------------------------------------------------------|

"gathered 'round..."
"Salvation found..."
||---------------------------------------------------------------||
||---------------------------------------------------------------||
||---------------------------------------------------------------||
||-7-7--7-7-7-7-7-7--7-7-7-7-7-7--7-7--7\5-5-5-5-5--5---5--------||
||-3/5--5-5-5-5-3/5--5-5-5-5-3/5--5-5--5\3-3-3-3-3--5---5--------||
||--------------------------------------------------3---3--/12\--||

OUTRO SOLO"
  Rhythm figure:
||---------------------------------------------------------------|
||---------------------------------------------------------------|
||------------------------------------7--------------7-----------|
||-7-----7-----7-------5------5-------5--------------5-----------|
||-5-----5-----5-------3------3----------------------------------|
||---------------------------------------------------------------|
|
|
|
|Solo
|   +=full bend                               
||---------------------------------------------------------------|
||---------------------------------------------------------------|
||---------------------------------------------------------------|
||-14+-----------------------14+-(14)-12--14--14+-(14)-12--------|
||---------------------------------------------------------------|
||---------------------------------------------------------------|


||---------------------------------------------------------------||
||---------------------------------------------------------------||
||---------------------------------------------------------------||
||-7-----7-----7-------5------5----------------------------------||
||-5-----5-----5-------3------3-------5----------------5---------||
||------------------------------------3----------------3---------||
|
|
|
|                                              +=1/2 bend
||---------------------------------------------------------------||
||-------------------------------------------14+-14+-14+-14+-----||
||---------------------------------------------------------------||
||-14+--------------------------14+-(14)-12----------------------||
||---------------------------------------------------------------||
||---------------------------------------------------------------||

KENNY's VOCALS
"All his people..."
"Through forgiveness..."
||---------------------------------------------------------------|
||---------------------------------------------------------------|
||---------------------------------------------------------------|
||-7-7--7-7-7-7-7-7--7-7-7-7-7-7--7-7--7\5-5-5-5-5--12--12-10-10-|
||-3/5--5-5-5-5-3/5--5-5-5-5-3/5--5-5--5\3-3-3-3-3--10--10--8-7--|
||---------------------------------------------------------------|

"gathered 'round..."
"Salvation found..."
||---------------------------------------------------------------||
||---------------------------------------------------------------||
||---------------------------------------------------------------||
||-7-7--7-7-7-7-7-7--7-7-7-7-7-7--7-7--7\5-5-5-5-5--5---5--------||
||-3/5--5-5-5-5-3/5--5-5-5-5-3/5--5-5--5\3-3-3-3-3--5---5--------||
||--------------------------------------------------3---3--/12\--||

REPEAT SOLO

"HEY JUDE" PART:
    +=fullbend                             +=1/2 bend & release
||---------------------------------------------------------------||
||---------------------------------------15+-(15)-+-(15)---------||
||--------------11--------------/14------------------------------||
||-10+-----------------------------------------------------------||
||---------------------------------------------------------------||
||---------------------------------------------------------------||

END with rhythm figure/keyboard solos.
Related for These Three Things tab