Song name
# A B C D E F G H I J K L M N O P Q R S T U V W X Y Z

Type O Negative - Dead Again tab

-------------------------------------------------------------------------------
			     Dead Again - Type O Negative
-------------------------------------------------------------------------------
Tabbed by: Dago
Email: dago2006@vp.pl

Tuning:BEADF#B


Intro:
e|---------------------------------------------------------------------------|
B|---------------------------------------------------------------------------|
G|---------------------------------------------------------------------------|
D|-----------------------------------------------<24>+-----------------------|
A|-x\----11-4--14--4--14--11-4--14--4--14------------------------------------|
E|-x-\---9--2--12--2--12--9--2--12--2--12------------------------------------|
  massive pickscrape


Main riff:
e|---------------------------------------------------------------------------|
B|---------------------------------------------------------------------------|
G|---------------------------------------------------------------------------|
D|---------------------------------------------------------------------------|
A|----11-11-11-11-11-11----14----9-----7--7--7--7--7--7-----16---9-----------|
E|----9--9--9--9--9--9-----12----7-----5--5--5--5--5--5-----14---7-----------|


e|---------------------------------------------------------------------------|
B|---------------------------------------------------------------------------|
G|---------------------------------------------------------------------------|
D|----9---7---6---5---9---7---6---5------------------------------------------|
A|----7---5---4---3---7---5---4---3------------------------------------------|
E|---------------------------------------------------------------------------|

Solo:
e|----------------------------------------------------------|----------------|
B|-----11----11--12------12--14------14--12------12---------|----------------|
G|--------11---------11----------11----------11-------11-11-|--11~-----------|
D|----------------------------------------------------------|----------------|
A|----------------------------------------------------------|----------------|
E|----------------------------------------------------------|----------------|

e|---------------------------------------------------------------------------|
B|-----------------\14--14b------------------\14--14br-----------------------|
G|----\14--14b------------------\14--14b-------------------------------------|
D|---------------------------------------------------------------------------|
A|---------------------------------------------------------------------------|
E|---------------------------------------------------------------------------|

e|-----17-----17--19---------19--21-------21--19--------19--17---------------|
B|---------17----------17-------------17-----------17------------17-17-------|
G|---------------------------------------------------------------------------|
D|---------------------------------------------------------------------------|
A|---------------------------------------------------------------------------|
E|---------------------------------------------------------------------------|


Ending:
e|---------------------------------------------------------------------------|
B|----3-3-3-4-5-3-2-0--------------------------------------------------------|
G|----3-3-3-4-5-3-2-0--------------------------------------------------------|
D|---------------------------------------------------------------------------|
A|---------------------------------------------------------------------------|
E|---------------------------------------------------------------------------|


| /  slide up
| \  slide down
| h  hammer-on
| p  pull-off
| ~  vibrato
| +  harmonic
| x  Mute note
===============================================================================
Tap to rate this tab
 
# A B C D E F G H I J K L M N O P Q R S T U V W X Y Z