Guitaretab - guitar tabs
Song name
# A B C D E F G H I J K L M N O P Q R S T U V W X Y Z

Typecast - Every Moss And Cobweb tab

Typecast
Every Moss And Cobweb
2006 EMI Records

Tracklist:
1.) You Don't Need Eyes To See
2.) In Blindness
3.) Bad News Brown
4.) My Farewell
5.) Bright Eyes
6.) Not About You
7.) The Conflict
8.) Boston Drama
9.) What You Are
10.) Will You Ever Learn
11.) Emmanuel
12.) Open Wound
13.) Don't Take Me From Me
14.) An Angel

______________________________________

1.) You Don't Need Eyes To See

Tuning: standard EADGBe

This song is originally played in a piano. I just converted it to guitar.

Key: E

Intro:
     C#m        B        A9
e|-----4---|-----2---|---------|-----|
B|-5-------|-4-------|-2-----0-|-2-4-|
G|---------|---------|-----2---|-----|
D|---6---6-|---4---4-|---2-----|-----|
A|-4-------|-2-------|-0-------|-----|
E|---------|---------|---------|-----|

     C#m        B        A9        A9
e|-----4---|-----2---|---------|-----0-------0-|
B|-5-------|-4-------|-2-----0-|-0---0---------|
G|---------|---------|-----2---|---1-2-----2---|
D|---6---6-|---4---4-|---2-----|-----2---2-----|
A|-4-------|-2-------|-0-------|-----0-0-------|
E|---------|---------|---------|---------------|


Verse:

Oh, this is not what I had in mind
      E (x2)             A9 (x2)
e|-------------0---|---------0---2-0-|
B|---------0-----0-|-----0-----0-----|
G|-----1-----1-----|-------2---------|
D|-------2---------|---2-------------|
A|---2-------------|-0---------------|
E|-0---------------|-----------------|

Oh, am I running out of time
      E (x2)             A9 (x2)
e|-------------0---|---------0---2-0-|
B|---------0-----0-|-----0-----0-----|
G|-----1-----1-----|-------2---------|
D|-------2---------|---2-------------|
A|---2-------------|-0---------------|
E|-0---------------|-----------------|

You donít need eyes to see
     C#m        Bsus4       A9
e|---------|-2-------|---------0---2-0-|
B|-------5-|-------5-|-----0-----0-----|
G|-----6---|-----4---|-------2---------|
D|---6-----|---4-----|---2-------------|
A|-4-------|-2-------|-0---------------|
E|---------|---------|-----------------|

You just need you heart to let me in
     C#m        Bsus4       A9
e|-4---0---|-2---2-0-|-------5-----0---|
B|---0---0-|---------|-----0-----0---0-|
G|---------|---------|---------2-------|
D|---------|---4-----|---2-------------|
A|-4-------|-2-------|-0---------------|
E|---------|---------|-----------------|

Itís not that hard to do
     C#m        Bsus4       A9
e|-4-----4-|-2---2---|---------7-------|
B|-5-----5-|-4---0---|-------0-5-------|
G|-6---6-6-|-4-------|-----2---6-2---2-|
D|-6-6-----|-4-4---4-|---2-----7---2---|
A|-4-------|-2-------|-0---------------|
E|---------|---------|-----------------|

Just let me hold you Let it all go
        E/G#          A9        Bsus4
e|-------7------0-|-5-------|-0-------|
B|-----0------0---|-------0-|-----0---|
G|----------1-----|-----2---|---------|
D|---2---6--------|---2-----|---------|
A|----------------|-0-------|-2-2---2-|
E|-4--------------|---------|---------|


Outro:
        C#m          F#m7
e|-4--------------|----------|
B|-5-----5----2-4-|-5-----5--|
G|-6---6----1-----|-2--------|
D|-6-6------------|-4---4----|
A|-4--------------|-4-4------|
E|----------------|-2--------|

Just let me hold you Let it all go
        A        Am9     C#m
e|-7\5-------0-|-7---|---4-----------------------|
B|-5----0------|-5---|-5-------4-5-4-2-----------|
G|-6------2----|-5---|---6---6---------1---------|
D|-7-----------|-7---|-----6---------------------|
A|-7-----------|-7---|---4----------------4(End)-|
E|-5-----------|-5---|---------------------------|


ENJOY!!!!!!!!!

_________________________________________

2.) In Blindness

Key: G

Tuning: Drop D both Guitars

Chords used:
Em -   222xxx
C -    x32010
D/F# - 454xxx
F#m -  444xxx
Am -   x02210
Bm -   x24432
G -    555xxx
B7 -   997xxx


Verse 1:
Em                                                                  C
  My instincts have mislead me What I feel shouldnít be what I think

Guitar 1:
e|--------|------5h7p5-----|----------------------------------------------|
B|--------|------------7-8-|----------------------------------------------|
G|--------|----------------|-5-5-5-5--5-5-5-5-5--5--5--5-5-5-5-5--5-5-5-5-|
D|--------|-4--------------|-5-5-5-5--5-5-5-5-5--5--5--5-5-5-5-5--5-5-5-5-|
A|--------|-2--------------|-3-3-3-3--3-3-3-3-3--3--3--3-3-3-3-3--3-3-3-3-|
D|--------|-2--------------|----------------------------------------------|

Guitar 2:
e|-2h3-2------|--------2h3-2---5----3-|-------------------------------------------|
B|-------3-5--|-3-1-0--------3----3---|-------------------------------------------|
G|------------|-----------------------|-7-7-7/9--7-7-7-7-7/9--4--7-7-7/9--7-7-7-7-|
D|------------|-----------------------|-x-x-x/x--x-x-x-x-x/x--x--x-x-x/x--x-x-x-x-|
A|------------|-----------------------|-5-5-5/7--5-5-5-5-5/7--2--5-5-5/7--5-5-5-5-|
D|------------|-----------------------|-------------------------------------------|

Em                                                                          C---Em-D/F#
  Itís not about how it will me feel better But itís something to look after

Guitar 1:
e|--5h7p5----|------5h7p5-----|------------------------------------------------------|
B|-------7-8-|------------7-8-|------------------------------------------------------|
G|-----------|----------------|-5-5-5-5--5-5-5-5-5--5--5--5-5-5-5-x-x-x--------------|
D|-----------|-4--------------|-5-5-5-5--5-5-5-5-5--5--5--5-5-5-5-x-x-x-2-2-2--4-4-4-|
A|-----------|-2--------------|-3-3-3-3--3-3-3-3-3--3--3--3-3-3-3-x-x-x-2-2-2--5-5-5-|
D|-----------|-2--------------|-----------------------------------------2-2-2--4-4-4-|

Guitar 2:
e|-2h3-2------|-3-2---3--3----5-|----------------------------------------0-0-0--2-2-2-|
B|-------3-5--|-----3------2----|----------------------------------------x-x-x--x-x-x-|
G|------------|-----------------|-7-7-7/9--7-7-7-7-7/9--4--7-7-7/9-x-x-x-x-x-x--x-x-x-|
D|------------|-----------------|-x-x-x/x--x-x-x-x-x/x--x--x-x-x/x-x-x-x-2-2-2--4-4-4-|
A|------------|-----------------|-5-5-5/7--5-5-5-5-5/7--2--5-5-5/7-x-x-x--------------|
D|------------|-----------------|-----------------------------------------------------|


Chorus:
Am                                       D                 Bm             Em  C  Em-D/F#
  Thereís a lack of color to these spaces Lack of color to fill this emptiness

Guitar 1:
e|--------------2(x8)-|----------------------------|
B|--------------3(x8)-|----------------------------|
G|--------------4(x8)-|----------------------------|
D|-7(x16)-0(x8)-4(x8)-|-2(x16)-10(x8)-2-2-2--4-4-4-|
A|-7(x16)-0(x8)-2(x8)-|-2(x16)-10(x8)-2-2-2--5-5-5-|
D|-7(x16)-0(x8)-------|-2(x16)-10(x8)-2-2-2--4-4-4-|

Guitar 2:
e|-----------------7---7---10---10---|---------7-----------7---------------7---0-0-0--2-2-2-|
B|-3---3---3---3-----8---8----8----8-|---8-7-8---8-7-8---8---8-7-8---8-7-8---8-x-x-x--x-x-x-|
G|---0---0---0---0-------------------|-7---------------7-----------7-----------x-x-x--x-x-x-|
D|-----------------------------------|-----------------------------------------2-2-2--4-4-4-|
A|-----------------------------------|------------------------------------------------------|
D|-----------------------------------|------------------------------------------------------|

Am                               B7                                      Em--C
  Lack of color to complete this life Lack of color to see the difference

Guitar 1:
e|---------------|------5h7p5-----|-------------------------|
B|---------------|------------7-8-|-------------------------|
G|---------------|----------------|-5-5-5-5--5-5-5-5-5-5--5-|
D|-7(x16)-7(x16)-|-2--------------|-5-5-5-5--5-5-5-5-5-5--5-|
A|-7(x16)-9(x16)-|-2--------------|-3-3-3-3--3-3-3-3-3-3--3-|
D|-7(x16)-9(x16)-|-2--------------|-------------------------|
                                               x2

Guitar 2:
e|-------------------7------10-7-|-3-2---3--3----5-|-------------------------|
B|----------------10---8-10------|-----3------3----|-------------------------|
G|-9(x16)-12(x8)-----------------|-----------------|-7-7-7/9--7-7-7-7-7/9--4-|
D|-x(x16)--x(x8)-----------------|-----------------|-x-x-x/x--x-x-x-x-x/x--x-|
A|-7(x16)-10(x8)-----------------|-----------------|-5-5-5/7--5-5-5-5-5/7--2-|
D|-------------------------------|-----------------|-------------------------|
                                                                x2


Verse 2:
Em                                                            C  Em-D/F#
  I need your guiding light to help me overcome this confusion

Guitar 1:
e|--------|-----------------------------------------------------|
B|--------|-----------------------------------------------------|
G|--------|-5-5-5-5--5-5-5-5-5-5--5--5-5-5-5-x-x-x--------------|
D|-2(x32)-|-5-5-5-5--5-5-5-5-5-5--5--5-5-5-5-x-x-x-2-2-2--4-4-4-|
A|-2(x32)-|-3-3-3-3--3-3-3-3-3-3--3--3-3-3-3-x-x-x-2-2-2--5-5-5-|
D|-2(x32)-|----------------------------------------2-2-2--4-4-4-|

Guitar 2:
e|----------|--------------------------------------------------------|
B|----------|--------------------------------------------------------|
G|-11----12-|-7-7-7/9--7-7-7-7-7/9--4--7-7-7/9-x-x-x-9-9-9--11-11-11-|
D|--x-----x-|-x-x-x/x--x-x-x-x-x/x--x--x-x-x/x-x-x-x-9-9-9--12-12-12-|
A|--9----10-|-5-5-5/7--5-5-5-5-5/7--2--5-5-5/7-x-x-x-7-7-7---9--9--9-|
D|----------|--------------------------------------------------------|


(Repeat Chorus}


Bridge: Beat switches from 4/4 to 3/4
G      F#m                   G            F#m      G       F#m G     F#m              G
  F#m
  Iíve been in endless doubts From all of this frustrations      Iíve been in endless doubts


Guitar 1: Palm mute    G(distort)
e|-------------------|---------------|
B|-------------------|---------------|
G|-------------------|---------------|
D|-5(x12)-4(x12)-----|-5(x12)-4(x12)-|
A|-5(x12)-4(x12)-----|-5(x12)-4(x12)-|
D|-5(x12)-4(x12)-----|-5(x12)-4(x12)-|
        x8                   x8

Guitar 2:
e|-------------|
B|-------------|
G|-4-----------|
D|---7-5-4-5---|
A|-----------5-|
D|-------------|
        x16

G                      D/F#     Bm         C G              D/F#     Bm     C   G---B7
  And know you've been there so look after me, brakes on my face and set me free

Guitar 1:
e|---------------2(x12)-0(x12)-|---------------------|
B|---------------3(x12)-1(x12)-|---------------------|
G|---------------4(x12)-0(x12)-|---------------------|
D|-5(x12)-4(x12)-4(x12)-2(x12)-|-5(x18)-7(x15)-x-x-x-|
A|-5(x12)-5(x12)-2(x12)-3(x12)-|-5(x18)-9(x15)-x-x-x-|
D|-5(x12)-4(x12)---------------|-5(x18)-9(x15)-x-x-x-|
              x2

Guitar 2:
e|-------------------------------|---------------|
B|-------------------------------|---------------|
G|-4---4/5/7--4--4--11--12--7--9-|-4(x18)-2(x18)-|
D|-x---x/x/x--x--x---x---x--x--x-|-x(x18)-x(x18)-|
A|-2---2/3/5--2--2---9--10--5--7-|-2(x18)-2(x18)-|
D|-------------------------------|---------------|
                x2

(Repeat chorus)

___________________________________________

3.) Bad News Brown

Key: A

Intro: F#m-D-E x3, D
       F#m-D-E x3, D

Verse 1:
F#m                           D
  Youíre making this hard for me
F#m                         D
  Iím cleaning the mess Iím in
F#m               D
  Please donít pretend
F#m                               D
  Cause youíre just the same like me


Chorus:
F#m                           D
  What did those angry stares mean?
F#m             D
  I donít understand
F#m                     D
  You told me that Iíve changed
F#m                              D
  But I havenít and youíre still here


Verse 2:
F#m     D                       F#m
  In my heart since youíve been gone
  D
I always think about you
F#m          D                 F#m       D
  Not youíre back I donít know what to do


(Repeat Chorus)


Bridge:
            Bm
You're still here
            C#m
You're still here
            D    C#m
You're still here
            Bm
You're still here
            C#m
You're still here
            D    E
You're still here


Outro: Do intro chords
I know we can never
be And I know it
but I donít want to believe

___________________________________________

4.) My Farewell

. - palm mute
/ - slide
x - dead string
~ - let it ring
* - harmonics
h - hammer om
p - pull-off


Dropped D Tuning

Guitar 1 (Bright Crunch Distortion)           Guitar 2 (Clean with chorus and reverb)
e|------------------------------------------- ------------------------------------|
B|------------------------------------------- ----9------9-------9----9-----9-----|
G|---------------------66666666--66666666---- --9-----9-------9-----9---------9---|
D|-77777777--77777777--66666666--66666666---- --------------7-----7-----7-7-----7-|
A|-77777777--77777777--44444444--44444444---- ------------------------------------|
D|-77777777--77777777------------------------ ------------------------------------|

--------------------|
-9------9------9----|
9--9---------9------|
-----7-7---7--------|
--------------------|
--------------------|


Verse

Guitar 1 Not sure with the notes to pick but it sounds well
e|-----------------------------------------------------------------------|
B|--2-------2-----------2------------------------------------------------|
G|--2----2----2----2------------6---------6---------6----6---------------|
D|-----0--------0----0-------6----6----6-----6----6----------------------|
A|------------------------4---------4-----------4-----4------------------|
E|-----------------------------------------------------------------------|

Gtr 2 Distorted
e|-------------------------------------------------------------------------------------|
B|------------------------------12-12--------------------12-12-------------------------|
g|---------9----------0-----9----------11-11h13p11-9-10p9-------11-11h13p11-9----------|
g|------9-----9----9-----9-------------------------------------------------------------|
d|----7---------7----------------------------------------------------------------------|
a|-------------------------------------------------------------------------------------|
e|-------------------------------------------------------------------------------------|

Pre-Chorus

e|-------------------------|
B|-------------------------|
G|--88888888-/-9999999999--|
D|--xxxxxxxx---xxxxxxxxxx--|
A|--66666666-/-7777777777--|
D|-------------------------|

Chorus

Guitar 1
e|--44444444444444---------------------|
B|--xxxxxxxxxxxxxx---------------------|
G|--22222222222222---6--6--6--6--------|
D|-------------------6--6--6--6--------|
A|-------------------4--4--4--4--------|
E|-------------------------------------|
                      .  .  .  .

Guitar 2
e|---------------------------------------------------------------------------------|
B|--------------------------------------------------------9*-----------------------|
G|-14141414-/-17171717171717-/-161616161616------------9*----9*----------8h9p8h9p8-|
D|-xxxxxxxx---xxxxxxxxxxxxxx---xxxxxxxxxxxx---1111111-----------11111111-----------|
A|-12121212-/-15151515151515-/-141414141414---1111111-----------11111111-----------|
D|--------------------------------------------1111111-----------11111111-----------|
                                              . . . .           . . . .
Repeat Verse
Then Chorus

Bridge

Gtr 1                          Gtr 2
e|---------------------------  --------------------------|
B|---------------------------  ---9----------------------|
G|---------------------------  ----8h9p8h9h11p9p8h9p8h9--|
D|--7~-7777--7~-7777---------  --------------------------|
A|--7~-7777--7~-7777---------  --------------------------|
D|--7--7777--7--7777---------  --------------------------|
       ....     ....
Gtr 1
e|--------------------------------------------------------          --------------------|
B|--------------------------------------------------------          --------------------|
G|--------------------------------------------------------          --------------------|
D|-1414141414141414-1111111111111-9999999999--7777777777-- 2x Then  --7~-7777-7~-7777---|
A|-1414141414141414-1111111111111-9999999999--7777777777--          --7~-7777-7~-7777---|
D|-1414141414141414-1111111111111-9999999999--7777777777--          --7~-7777-7~-7777---|

                                                                         ....    ...

Repeat Chorus

Outro

Gtrs 1 & 2
e|----------------------------------------------------------------|
B|----------------------------------------------------------------|
G|-7777/9999/111111/9999-------/16161616/14141414/12121212/14~----|
D|-xxxx-xxxx--xxxxx-xxxx-(2x)----xxxxxxx--xxxxxxx--xxxxxxx--x-----| Repeat 2x
A|-5555/7777/-99999/7777-------/14141414/12121212/10101010/12~----|
E|----------------------------------------------------------------|

My Farewell

Now I know I should go
Cause you left me here
Iím lost without you
You ended this day
The day I wished that never came
Iím lost without you
Let this paper be my ticket
A one way ride to nowhere
For I have worth
This is my goodbye


____________________________________________

5.) Bright Eyes

Tuning: Dropped D both guitars

Intro:

Guitar 1: x means palm mute
                            x2 this bar
e|------------------|---------------------------------|
B|------------------|---------------------------------|
G|-5----------------|---------------------------------|
D|-5-3--3----3--3---|-7-7-7-7-7-7-7-7-7-7-7-7-7-7-7-7-|
A|-3-3--3----3--3---|-7-7-7-7-7-7-7-7-7-7-7-7-7-7-7-7-|
D|---3--3----3--3---|-7-7-7-7-7-7-7-7-7-7-7-7-7-7-7-7-|
                        x x   x x   x x   x x   x   x

Guitar 2:
e|----------------------|
B|----------------------|
G|----------------------|
D|--5---0---2h3p2-0-----| (x8)
A|----3---3---------3h0-|
D|----------------------|


Chi's Bass Line: at 2nd turn
         F                 Am
G|-----------------|-----------------|
D|-----------------|-----------------|
A|-------8-7-5-3-3-|-----------------|
D|-3--3------------|-7-7-7-7-7-7-7-7-|
         x2


Verse 1: I know that you canít hear My mind is screaming your name

Guitar 1:
               x2                                  x2
e|---------------------------------|---------------------------------|
B|---------------------------------|---------------------------------|
G|---------------------------------|---------------------------------|
D|-3-3-3-3-3-3-3-3-3-3-3-3-3-3-3-3-|-7-7-7-7-7-7-7-7-7-7-7-7-7-7-7-7-| (x2)
A|-3-3-3-3-3-3-3-3-3-3-3-3-3-3-3-3-|-7-7-7-7-7-7-7-7-7-7-7-7-7-7-7-7-|
D|-3-3-3-3-3-3-3-3-3-3-3-3-3-3-3-3-|-7-7-7-7-7-7-7-7-7-7-7-7-7-7-7-7-|
   x x   x x   x x   x x   x   x     x x   x x   x x   x x   x   x

Guitar 2:
           x2                         x2
e|-------3------3------3-|-------7------7------7------|
B|-0h1------0h1----0h1---|---8------8------8------8---|
G|-----0-----------------|-9---9------9------9------9-|
D|-----------------------|----------------------------| (x2)
A|-----------------------|----------------------------|
D|-----------------------|----------------------------|


With the waves of my dreams I curse myself for looking your way

Guitar 1:
      x2        x2
e|---------|---------|
B|---------|---------|
G|---------|---------|
D|-3-3-3-3-|-7-7-7-7-| (x2)
A|-3-3-3-3-|-7-7-7-7-|
D|-3-3-3-3-|-7-7-7-7-|
   x x x     x x x

Guitar 2:
                                               x2
e|-----------------------------------|-3---3-----0-0-0-0-0-|
B|-----------------------------------|---------3-----------|
G|-0/5-5-5-5-5-5-5---5/9-9-9-9-9-9-9-|---2---2-------------|
D|-----------------------------------|---------------------|
A|-----------------------------------|---------------------|
D|-----------------------------------|---------------------|


Interlude 1: Drum Beat switches from 4/4 to 3/4

Guitar 1:
e|------------------|------------------------------|
B|------------------|------------------------------|
G|------------------|------------------------------|
D|-0--0--0--8--8--8-|-0--0--0--8--8--8--8--8--7--5-| (x2)
A|-0--0--0--8--8--8-|-0--0--0--8--8--8--8--8--7--5-|
D|-0--0--0--8--8--8-|-0--0--0--8--8--8--8--8--7--5-|

Guitar 2:
          x2                   x2
e|-------------------|--------------------|
B|-------------------|--------------------|
G|-------------------|-5h0--3h0--7--9--10-|
D|-5h0--3h0--3--2--3-|-5h0--3h0--7--9--10-|
A|-0----0----1--2--3-|-0----0----5--7---8-|
D|-0----0----0--2--3-|-0----0----0--0---0-|


Verse 2: I can never tell if our eyes are meeting (Drum beat switches back to 4/4)

Guitar 1: palm mute in 2nd turn
e|-----------------------------|
B|-----------------------------|
G|-----------------------------|
D|-7(x16)-8(x16)-0(x16)-3(x16)-| (x2)
A|-7(x16)-8(x16)-0(x16)-3(x16)-|
D|-7(x16)-8(x16)-0(x16)-3(x16)-|

Guitar 2: Will enter at 2nd turn only
         x2                x2               x2
e|----------------|----------------|----------------|--------|
B|----------------|----------------|----------------|--------|
G|-------5--------|-------5--------|-------5--------|-5(x16)-|
D|-2h3p2----------|-2h3p2----------|-2h3p2----------|-3(x16)-|
A|----------0-0-0-|----------1-1-1-|----------------|-3(x16)-|
D|----------------|----------------|----------0-0-0-|-3(x16)-|


Interlude 2: Drum beat switches back to 3/4 again

Guitar 1:
        x3         *=harmonics
e|--------------|--------|
B|--------------|--------|
G|--------------|-----5*-|
D|-0-0--1--1--1-|-0-0----|
A|-0-0--1--1--1-|-0-0----|
D|-0-0--1--1--1-|-0-0----|

Guitar 2:
         x3                This cool riff before Chorus
e|----------------|--------6-----4-5-6-|
B|----------------|----------5-4-------|
G|-15-15---15--15-|-15-15--------------|
D|--x--x----x---x-|--x--x--------------|
A|-13-13---13--13-|-13-13--------------|
D|----------------|--------------------|


Chorus: Lying face to face, your bright eyes cradles me

Guitar 1: x8
e|---------------|
B|---------------|
G|---------------|
D|-3(x24)-7(x24)-|
A|-3(x24)-7(x24)-|
D|-3(x24)-7(x24)-|

Guitar 2: x2
e|----------------------------|
B|----------------------------|
G|-5-5-------12--12--7/9--4/5-|
D|-3-3---7-7--x---x--x/x--x/x-|
A|-3-3---7-7-10--10--5/7--2/3-|
D|-3-3---7-7------------------|
then
      x16
e|-----------|
B|-----------|
G|-4h5p4h5---|
D|---------5-|
A|-----------|
D|-----------|

(Repeat Intro till fade out)

_____________________________________________________

Lyrics:

Key: C and F

Chords used: for Drop D
F -  333xxx
Am - 777xxx
Dm - 000xxx
Bb - 888xxx
Eb - 111xxx


Chords used: for Standard EADGBe
F -  133211
Am - x02210
Dm - xx0231
Bb - x13331
Eb - x68886


Intro: F--Am x2


Verse 1:
F
  I know that you canít hear
Am
  My mind is screaming your name
F
  Your smiles that crushes
        Am
my chest  that crushes my chest
F
  with the waves of
With the waves of my dreams
Am
  I curse myself for
for looking your way
F
  With the waves of
With the waves my dreams
Am
  I curse myself for
looking your way


Interlude: Dm--Bb--x4, Am(hold)


Verse 2:
Am            Bb
  I can never tell if
our eyes are meeting
Dm
  My heart is racing
F
  what are we avoiding
Am
  I must be dreaming
Bb
  I can never tell
Dm                F
  I can never tell


Interlude: Dm-Eb x4


Chorus:
F               Am
  Lying face to face
Your bright eyes
        F
cradles me and Iím
Am
Wishing youíre here
when I wake up
F
  Is this too much to
Am              F
ask Or is this enough
If this is a dream then
Am
I donít want to wake up
(Repeat)


Outro: F--Am x4, F--Am x10, F(hold)

___________________________________________

6.) Not About You

Key: E

Tuning: Standard EADGBe on 3 guitars

Chords used:
C#m -  x46654
A9 -   x02200
E -    022100
F#m -  244222
G#m -  466444
B9 -   x24400
Am -   x02210

Intro: C#m---A9---E---F#m--- (x2)
Guitar 1:
e|---------------------|
B|---------------------|
G|-6---2---------------|
D|-6---2---2---4-------| (x2)
A|-4---0---2---4-------|
E|---------0---2-------|

Guitar 2: Use the up down picking para hindi mangawit ung kamay ninyo, mabilis talaga
at mahirap pag sa umpisa.
e|-12-------------12------------------|
B|----9-10-12--------9-10-12-----12-9-|
G|--------------9--------------9------|
D|------------9--------------9--------| (x8)
A|------------------------------------|
E|------------------------------------|

Guitar 3: papasok pag 0:11
e|-16-12-14-16----12-16-12-14-16----12-16-12-|
B|-------------12----------------12----------|
G|-------------------------------------------|
D|-------------------------------------------| (x4)
A|-------------------------------------------|
E|-------------------------------------------|


Verse 1: Palm mute
C#m                    A9
  What makes this life meaningful?
       E                        F#m
Did it ever occurred to you the world doesnít revolve around you
C#m                           A9
  These things you hold wonít save you now
E                   F#m
  All it will do is bring you, bring you


Refrain:
A9                   C#m
down This wonít save you now
                A9                        C#m
This won't save you now, This won't bring you down


Guitar 2: bring you down... at 0:42
e|-------------------------|-2-0-----------0---------|
B|-5-4-----5-4-----5-4-----|-----0---2-4-----4-0-----|
G|-----4-------4-------6-4-|-------1-----1-------2-1-|
D|-------6-------6---------|-------------------------| (x2)
A|-------------------------|-------------------------|
E|-------------------------|-------------------------|
            x2                          x2

Ad lib: F#m-G#m-A9-B9; C#m-------- F#m-G#m-A9-B9


Chorus:
E                           F#m
  Love is precious, love is fragile
       C#m
Love I endless, love is everything and everything is what you donít have
(Repeat)

(Repeat Intro but once only)


Verse 2:
C#m                          A9
  You thought your life will be that easier
      E
Those things will blind you, and then youíll give in
F#m
Then youíll give up then youíll wake up
C#m                           A9
  These things you hold wonít save you now
E                   F#m
  All it will do is bring you down, bring you


(Repeat Refrain & Chorus skipping ad lib)


Bridge:
A9       G#m  C#m              A9   G#m C#m
  You're all alone is that you want?
A9       G#m  C#m                   A9
C#m
  You're all alone is that what you want?


Guitar 2:
e|-------------------0-|
B|-----0------0------0-|
G|-1h2----1h2----1h2---|
D|---------------------| (x4)
A|---------------------|
E|---------------------|

A9                       Am
This won't save you now, This won't bring you down
C#m
This won't save you now, This won't bring you down
A9
This can't save you now, This won't bring you down
C#m
This won't save you now, This won't bring you down

(Repeat Intro until fade)

Outro: C#m---A9(hold)

______________________________________________

7.) The Conflict

Key: B

Tuning: Drop D


Verse 1: (Screams) They push us further...

Guitar 1:
e|---------|-----|--------|
B|---------|-----|--------|
G|---------|-----|--------|
D|-6-6-6-6-|-1/2-|-2------|
A|-6-6-6-6-|-1/2-|-2(x31)-|
D|-6-6-6-6-|-1/2-|-2------|
     x4            palm mute

Guitar 2: * means harmonics
e|---------|-----|----------------9--11--9----------------------9--11--9--11p9-|
B|---------|-5*--|-----11---12--------------12------11---12--------------------|
G|-8-8/9\8-|-----|-8h9----------9---------------8h9----------9-----------------|
D|-x-x/x\x-|-----|--------9----------------------------9-----------------------|
A|-6-6/7\6-|-----|-------------------------------------------------------------|
D|---------|-----|-------------------------------------------------------------|

Far away from reason ...

Guitar 1:
e|---------|-----|--------|
B|---------|-----|--------|
G|---------|-----|--------|
D|-6-6-6-6-|-1/2-|-2------|
A|-6-6-6-6-|-1/2-|-2(x15)-|
D|-6-6-6-6-|-1/2-|-2------|
     x4            palm mute

Guitar 2: * means harmonics
e|---------|-----|----------------------------|
B|---------|-5*--|----------------------------|
G|-8-8/9\8-|-----|-15-----16----11-----13-----|
D|-x-x/x\x-|-----|--x(x8)--x(x8)-x(x8)--x(x8)-|
A|-6-6/7\6-|-----|-13-----14-----9-----11-----|
D|---------|-----|----------------------------|
     x4


Chorus:

They tire our hearts...

Guitar 1:
e|--------------------------------------------------|--------|
B|--------------------------------------------------|--------|
G|--------------------------------------------------|--------|
D|-4/6--4/6--4/6--4/6--2---4/6--4/6--4/6--4/6--9--8-|-2------|
A|-4/6--4/6--4/6--4/6--2---4/6--4/6--4/6--4/6--9--9-|-2(x32)-|
D|-4/6--4/6--4/6--4/6--2---4/6--4/6--4/6--4/6--9--8-|-2------|
                                                      palm mute

Guitar 2: Idle


We will survive...

Guitar 1:
e|--------------------------------------------------|--------|
B|--------------------------------------------------|--------|
G|--------------------------------------------------|--------|
D|-4/6--4/6--4/6--4/6--2---4/6--4/6--4/6--4/6--9--8-|-2------|
A|-4/6--4/6--4/6--4/6--2---4/6--4/6--4/6--4/6--9--9-|-2(x32)-|
D|-4/6--4/6--4/6--4/6--2---4/6--4/6--4/6--4/6--9--8-|-2------|
                                                      palm mute

Guitar 2:
e|------|----------------------------|
B|------|----------------------------|
G|------|-9-----11-----13-----16-----|
D|-Idle-|-x(x8)--x(x8)--x(x8)--x(x8)-|
A|------|-7------9-----11-----14-----|
D|------|----------------------------|


Interlude :

Guitar 1:
e|--------------|------|--------------|------|--------|
B|--------------|------|--------------|------|--------|
G|--------------|------|--------------|------|--------|
D|-4/6--9--4--6-|-Idle-|-4/6--9--4--6-|-Idle-|-2------|
A|-4/6--9--4--6-|------|-4/6--9--4--6-|------|-2(x32)-|
D|-4/6--9--4--6-|------|-4/6--9--4--6-|------|-2------|

Guitar 2:
e|------|----------|------|---------|------|
B|------|----------|------|---------|------|
G|------|-8---11p8-|------|---------|------|
D|-Idle-|---9------|-Idle-|-9--9--9-|-Idle-|
A|------|----------|------|-9--9--9-|------|
D|------|----------|------|-9--9--9-|------|


Verse 2: The darkest moment...

Guitar 1:
e|---------|-----|--------|
B|---------|-----|--------|
G|---------|-----|--------|
D|-6-6-6-6-|-1/2-|-2------|
A|-6-6-6-6-|-1/2-|-2(x31)-|
D|-6-6-6-6-|-1/2-|-2------|
     x4            palm mute

Guitar 2: * means harmonics
e|---------|-----|----------------9--11--9----------------------9--11--9--11p9-|
B|---------|-5*--|-----11---12--------------12------11---12--------------------|
G|-8-8/9\8-|-----|-8h9----------9---------------8h9----------9-----------------|
D|-x-x/x\x-|-----|--------9----------------------------9-----------------------|
A|-6-6/7\6-|-----|-------------------------------------------------------------|
D|---------|-----|-------------------------------------------------------------|


Their fangs will shatter...

Guitar 1:
e|---------|-----|--------|
B|---------|-----|--------|
G|---------|-----|--------|
D|-6-6-6-6-|-1/2-|-2------|
A|-6-6-6-6-|-1/2-|-2(x15)-|
D|-6-6-6-6-|-1/2-|-2------|
     x4            palm mute

Guitar 2: * means harmonics
e|---------|-----|----------------------------|
B|---------|-5*--|----------------------------|
G|-8-8/9\8-|-----|-15-----16-----9-----11-----|
D|-x-x/x\x-|-----|--x(x8)--x(x8)-x(x8)--x(x8)-|
A|-6-6/7\6-|-----|-13-----14-----7------9-----|
D|---------|-----|----------------------------|
     x4


(Repeat Chorus)


Interlude 2:

Guitar 1:
e|------------|
B|------------|
G|------------|
D|-6--6--6--6-|
A|-6--6--6--6-|
D|-6--6--6--6-|
       x2

Guitar 2:
e|------------|
B|------------|
G|------------|
D|-8--8--8--8-|
A|-6--6--6--6-|
D|-6--6--6--6-|
at 2nd turn of guitar 1


Beat switches to 3/4

Guitar 1:
e|---|--------|
B|---|--------|
G|---|--------|
D|-6-|-2------| (x2)
A|-6-|-2(x24)-|
D|-6-|-2------|
  x4

Guitar 2:
e|-------|--------------------|-------|
B|-------|--------------------|-11h12-|
G|-8h9p8-|-8h9p8-11-9-8h9p8---|-------|
D|-------|------------------9-|-------| (x2)
A|-------|--------------------|-------|
D|-------|--------------------|-------|
   x3                           x12
(repeat)


Bridge: Strike us with everything youíve got...

Guitar 1:
e|---------|
B|---------|
G|---------|
D|-4--6--2-| (x4)
A|-4--6--2-|
D|-4--6--2-|

Guitar 2: will enter at third time
e|-------------------------|
B|-------------------------|
G|-4-4-3-6-6-6-------------|
D|-------------4-4-4-6-6-6-| (x2)
A|-------------------------|
D|-------------------------|

Guitar 1: Idle and pick slide

Guitar 2:
e|---------------------|
B|---------------------|
G|---------------------|
D|-4h6-6-4h6-4h6-4h6---| (x8) before 5th time, drums will roll first
A|-------------------7-|
D|---------------------|

Guitar 1:
e|----------|--------------|
B|----------|--------------|
G|----------|--------------|
D|-6------2-|-4--6--2---1~-|
A|-6(x15)-2-|-4--6--2---1~-|
D|-6------2-|-4--6--2---1~-|
      x3

Guitar 2:
e|------------------------|---------|
B|----------------------4-|---------|
G|---4-4-3-4-3-4-4-3-4----|---------|
D|-6----------------------|-1--1--1-|
A|------------------------|-1--1--1-|
D|------------------------|-1--1--1-|
            x3


Lyrics:

Key: B

Chords used: for Drop D
G#m -   666xxx
E -     222xxx
F# -    444xxx
Ebm -   111xxx
B -     999xxx
F#/Bb - 898xxx


Chords used: for Standard EADGBe
G#m -   466444
E -     022100
F# -    244322
Ebm -   x68876
B -     x24442
F#/Bb - x143xx


Verse 1:
G#m
  They push us further
          E
Away from this
G#m
  Far away from reason
                 E
This have got to end


Chorus:
F#-G#m x3    B    F#/Bb F#-G#m x3
        They tire our   hearts
        B  F#/Bb E
Bending us as    hard
as they can
F#-G#m x3  B    F#/Bb F#-G#m x3
        We will sur---vive
   B    F#/Bb E
As long as    we
stand together


Interlude: F#-G#m-B-F#-G#m x2, E


Verse 2:
G#m
   This darkest moment
                   E
The light deprives the sun
G#m
   Their fangs will shatter
                      E
In the end we are the ones
whoíll be left strong


(Repeat Chorus)


Interlude: G#m x8, G#m--E x2


Bridge:
F#-G#m-E
        Strike us with
everything youíve got
F#-G#m-E
        Strip us of
everything we hold
(repeat)
F#-G#m-E


Interlude: G#m--E x4


Outro:
G#m                 E
   Their fangs will shatter
G#m              E
   In the end we are the ones
(Repeat)
G#m--E

           G#m F#-G#m-E, Ebm
We are the ones

______________________________________________

8.) Boston Drama

Key: D

Tuning: Drop D

Chords used: for Drop D
G -    555xxx
F#m -  444xxx
D -    000xxx
Em -   222xxx
A/C# - x476xx
C -    x355xx
Am -   777xxx or x022xx
Bm -   999xxx or x244xx
D/F# - 454xxx

[ Tab from: http://www.guitaretab.com/t/typecast/110506.html ]
Chords used: for Standard EADGBe
G -    320033
F#m -  244222
D -    xx0232
Em -   022000
A/C# - x476xx
C -    x32010
Am -   x02210
Bm -   x24432
D/F# - 2x023x


Intro: G--F#m x4


Verse 1:
G
  Standard pick-up lines that
                    D
seems to wreck your bones
G
  Can this be a sequel
            D
of my dying hope?
Bm
  Chasing down a never
              D
ending make believe
Bm
  But youíre a perfect
                    G
match of consistency


Chorus:
D
  Will you come back
          F#m
in a heartbeat?
G
  Donít be confused of what
  Bm
a great thing we could be
D
  Weíll take a walk
             F#m
on the same street
G
  Can you tell me how
          Bm
Boston is like without me?


Post Chorus: D


Verse 2:
G
  Youíre image is stamp beneath
                  D
the insides of my heart
G
  Now youíre gone I don't
               D
know where to start
Bm
  The evidence is showing
                   D
like a stable apprehension
Bm
  But youíre the only one
                     G
whoís apt for this affection


(Repeat Chorus)


Interlude:

Part 1:
Em(hold)-D(hold)-A/C#(hold)-C(hold), Em--D/F#--G--Bm--Em--D/F#--G(hold)


Part 2:
D--F#m--G--Bm x9


Outro: G--F#m x4, G(hold)

_______________________________________________

9.) What You Are

Tuning: Dropped D all 3 guitars

Key: Bb

Intro:

Part 1: Beat is standard 4/4

Guitar 1:
e|-----------------|
B|-----------------|
G|-----------------|
D|-0~---1---3~---1-| (x2)
A|-0~---1---3~---1-|
D|-0~---1---3~---1-|

Guitar 2:
e|---------------------------------------------------------------------------------|
B|-----------------------------------------6-6-----6-6-----6-----------------------|
G|-7-7-----7-7-----7---8-8-----8-8-----8-----------------------8-8-----8-8-----8---|
D|-----5-5-----5-5---5-----5-5-----5-5---5-----5-5-----5-5---5-----5-5-----5-5---5-|
A|---------------------------------------------------------------------------------|
D|---------------------------------------------------------------------------------|
then
e|---------------------------------------------------------------------|
B|-----------------------------------------6-6-----6-6-----6-----------|
G|-7-7-----7-7-----7---8-8-----8-8-----8-----------------------8-8-----|
D|-----5-5-----5-5---5-----5-5-----5-5---5-----5-5-----5-5---5-----5-5-|
A|---------------------------------------------------------------------|
D|---------------------------------------------------------------------|


Part 2: Beat will switch to 3/4

Guitar 1:
e|--------------------------|
B|--------------------------|
G|--------------------------|
D|-1(x12)-8(x6)-0(x3)-3(x3)-| (x2)
A|-1(x12)-8(x6)-0(x3)-3(x3)-|
D|-1(x12)-8(x6)-0(x3)-3(x3)-|

Guitar 2:
e|------------------------------------------|
B|------------------------------------------|
G|-10--10--5--5--10--10--14/15\14/15~---17~-|
D|--x---x--x--x---x---x---x/-x\-x/-x~----x~-|
A|--8---8--3--3---8---8--12/13\12/13~---15~-|
D|------------------------------------------|
then
e|--------------------------------------------|
B|--------------------------------------------|
G|-10--10--5--5--10--10--7--7--3-----3---3-5~-|
D|--x---x--x--x---x---x--x--x--3---3---3---x~-|
A|--8---8--3--3---8---8--5--5--1-1---------3~-|
D|--------------------------------------------|


Verse 1: Wake me up from this dream...

Guitar 1: Palm muted
e|--------------------------|
B|--------------------------|
G|--------------------------|
D|-1(x12)-8(x6)-0(x3)-3(x3)-| (x2)
A|-1(x12)-8(x6)-0(x3)-3(x3)-|
D|-1(x12)-8(x6)-0(x3)-3(x3)-|


Guitar 2:
e|--10----|--11----|--------|--13----|
B|-----11-|-----11-|--13-11-|-----11-|
G|--------|--------|--------|--------|
D|--------|--------|--------|--------| (x2)
A|--------|--------|--------|--------|
D|--------|--------|--------|--------|


Chorus: Iím standing on top of the cliff

Guitar 1:
e|-----------------------|--------------------------|
B|-----------------------|--------------------------|
G|-----------------------|--------------------------|
D|-1(x12)-5(x12)-8(x3)-3-|-1(x12)-8(x6)-0(x3)-3(x3)-| (x2)
A|-1(x12)-5(x12)-8(x3)-3-|-1(x12)-8(x6)-0(x3)-3(x3)-|
D|-1(x12)-5(x12)-8(x3)-3-|-1(x12)-8(x6)-0(x3)-3(x3)-|

Guitar 2:
e|---------------------------------|---------------------------------|
B|---------------------------------|---------------------------------|
G|-----10/14-------14/15\14---3--5-|-10---5---10---7---3-----3---3-5-|
D|-13---x/-x--13----x/-x\-x---3--5-|--x---x----x---x---3---3---3---x-| (x2)
A|-13---8/12--13---12/13\12---1--3-|--8---3----8---5---1-1---------3-|
D|-13---------13-------------------|---------------------------------|


Interlude 1:

Guitar 1:
e|---|---|
B|---|---|
G|---|---|
D|-1-|-1-|
A|-1-|-1-|
D|-1-|-1-|

Guitar 2:
e|---------------------|-------------------|
B|---------------------|-------------------|
G|-------------2h3p2---|-------------2h3-5-|
D|-3h5-----3h5-------3-|-3h5-----3h5-------|
A|-----3h5-------------|-----3h5-----------|
D|---------------------|-------------------|

Guitar 3:
e|---|-----------------1-|
B|---|-------------3h4---|
G|-8-|-3h5-----3h5-------|
D|-8-|-----3h5-----------|
A|-6-|-------------------|
D|---|-------------------|


Verse 2: I hope that somewhere there in your heart...

e|--------------------------|
B|--------------------------|
G|--------------------------|
D|-1(x12)-8(x6)-0(x3)-3(x3)-| (x2)
A|-1(x12)-8(x6)-0(x3)-3(x3)-|
D|-1(x12)-8(x6)-0(x3)-3(x3)-|


Guitar 2:
e|--10----|--11----|--------|--13----|
B|-----11-|-----11-|--13-11-|-----11-|
G|--------|--------|--------|--------|
D|--------|--------|--------|--------| (x2)
A|--------|--------|--------|--------|
D|--------|--------|--------|--------|


So fly me out of this place we don't have to be here anyway

Guitar 1:
e|--------------------------|
B|--------------------------|
G|--------------------------|
D|-1(x12)-8(x6)-0(x3)-3(x3)-| (x2)
A|-1(x12)-8(x6)-0(x3)-3(x3)-|
D|-1(x12)-8(x6)-0(x3)-3(x3)-|

Guitar 2:
e|----------------------------|
B|----------------------------|
G|-8(x12)-15(x6)-7(x3)-10(x3)-|
D|-8(x12)-15(x6)-5(x3)-10(x3)-| (x2)
A|-6(x12)-13(x6)-5(x3)--8(x3)-|
D|----------------------------|

Guitar 3:
e|-13----13----13--------------13-|
B|----11----11----11--10h11p11----|
G|--------------------------------|
D|--------------------------------| (x4)
A|--------------------------------|
D|--------------------------------|


(Repeat Chorus)


Interlude 2:

Guitar 1:
e|---|---|---|---|
B|---|---|---|---|
G|---|---|---|---|
D|-1-|-1-|-5-|-5-| (x2)
A|-1-|-1-|-5-|-5-|
D|-1-|-1-|-5-|-5-|

Guitar 2:
e|---------------------|-------------------|
B|---------------------|-------------------|
G|-------------2h3p2---|-------------2h3-5-|
D|-3h5-----3h5-------3-|-3h5-----3h5-------| (x2)
A|-----3h5-------------|-----3h5-----------|
D|---------------------|-------------------|

Guitar 3:
e|---|-----------------1-|
B|---|-------------3h4---|
G|-8-|-3h5-----3h5-------|
D|-8-|-----3h5-----------| (x2)
A|-6-|-------------------|
D|---|-------------------|


Interlude 3:

Guitar 1:
e|---------------------------|--------------------------|
B|---------------------------|--------------------------|
G|---------------------------|--------------------------|
D|-1(x12)-5(x12)-8(x3)-3(x3)-|-1(x12)-8(x6)-0(x3)-3(x3)-|
A|-1(x12)-5(x12)-8(x3)-3(x3)-|-1(x12)-8(x6)-0(x3)-3(x3)-|
D|-1(x12)-5(x12)-8(x3)-3(x3)-|-1(x12)-8(x6)-0(x3)-3(x3)-|

Guitar 2:
e|-------------------------------|
B|-------------------------------|
G|-----------------0-------2---3-|
D|-----3---1---0-------3---------| (x2)
A|-1-----------------------------|
D|-------------------------------|

Guitar 3:
e|----------------|-8h10p8-------|-----------|
B|-10h11p10-------|--------11p10-|-6h8p6-----|
G|----------10----|--------------|-------8p7-|
D|-------------12-|--------------|-----------| (x2)
A|----------------|--------------|-----------|
D|----------------|--------------|-----------|
        x4               x2            x2


Cool Riff Before Chorus:

Guitar 1:
e|-------------------------------|
B|-------------------------------|
G|-19--17--15--14--10-8-7--10----|
D|--x---x---x---x---x-x-x---x--8-|
A|-17--15--13--12---8-6-5---8--8-|
D|-----------------------------8-|

Guitar 2: Idle

Guitar 3:
e|-10-------------------------------|
B|-----13--11--10----------------11-|
G|-----------------10--------10-----|
D|--------------------13-12---------|
A|----------------------------------|
D|----------------------------------|


(Repeat Chorus)

(Repeat Interlude 3)


Outro: End on Eb all guitars


Lyrics:

Chords used: Drop D only
Eb - 111xxx
Bb - 888xxx
D -  000xxx
F -  333xxx
Gm - 555xxx

Intro: D--Eb-F-Eb (x2) then Eb--Bb-D-F


Verse 1:
Eb                          Bb  D           F
  Wake me up from this dream    This is not happening
Eb                  Bb       D    F
  I canít run to you I canít feel life


Chorus:
Eb                           Gm
  Iím standing on top of the cliff
        Bb       F(hold) Eb                     Bb-D-F
And Iím ready to jump,   ready to fall once more
Eb                        Gm
  I canít change what you are
       Bb       F(hold)  Eb                     Bb-D-F
So Iím ready to jump,    ready to fall once more


Interlude 1: Eb--Eb

Verse 2:
Eb                                         Bb
  I hope that somewhere there in your heart
 D         F        Eb                      Bb
Screams my name out loud wanting to come out
                     D F
Wanting to jump with me
   Eb
So fly me out of this place
Bb               D       F     Eb
We donít have to be here anyway
                  Bb            D    F
Letís go somewhere where nobody knows


(Repeat Chorus)


Interlude 2: Eb-Gm (x2)

Repeat Chorus chords

Cool Riff: D--C--Bb--A--F-Eb-D--F--Bb

(Repeat Chorus)

Repeat Interlude 3

Outro: End on Eb

________________________________________________

10.) Will You Ever Learn

Key: D

Tuning: Drop D 3 guitars

Verse 1: So whatís the point in all of this?

Guitar 1: Acoustic pedal effect
e|-2--2-------------|
B|-3--2---3---3-----|
G|-2--2---2---2---7-|
D|-0--0---2---0---7-|
A|-0--0---0---2---5-|
D|-0--0-----------5-|

Guitar 2:

e|-------12----------12----------12----12/14\12-9/10-|
B|-10-10----10-10-10----10-10-10----10---------------|
G|---------------------------------------------------|
D|---------------------------------------------------| x3
A|---------------------------------------------------|
D|---------------------------------------------------|
then
e|-------12----------12----------12-------|
B|-10-10----10-10-10----10-10-10----10-10-|
G|----------------------------------------|
D|----------------------------------------|
A|----------------------------------------|
D|----------------------------------------|

Verse 2: I did it all for you Hoping you would see

Guitar 1:
e|------------------------------|
B|------------------------------|
G|-----------------------7(x16)-|
D|-0(x16)-7(x16)-12(x16)-7(x16)-|
A|-0(x16)-7(x16)--9(x16)-5(x16)-|
D|-0(x16)-7(x16)--9(x16)-5(x16)-|

Guitar 2:
e|------------------------------|
B|------------------------------|
G|-7(x16)-9(x16)-11(x16)-7(x16)-|
D|-7(x16)-x(x16)--x(x16)-5(x16)-|
A|-5(x16)-7(x16)--9(x16)-5(x16)-|
D|-0(x16)-----------------------|


Refrain: But you, you think about yourself

Guitar 1:
            x2                          x2
e|-------------------------|-------------------------|
B|-------------------------|-------------------------|
G|-----6-------6-----------|-----7-------7-----------|
D|---7---7---7---7---7---7-|---7---7---7---7---7---7-| then Repeat 1st bar
A|-------------------------|-------------------------|
D|-4-------4-------4---4---|-5-------5-------5---5---|
            1st                        2nd
then
e|--------|
B|--------|
G|-7(x16)-
D|-7(x16)-
A|-5(x16)-
D|-5(x16)-

Guitar 2:
e|----------------------------------|
B|----------------------------------|
G|----------------7(x8)-6(x4)-8(x4)-|
D|-4~---5~---4~---x(x8)-x(x4)-x(x4)-|
A|-4~---5~---4~---5(x8)-4(x4)-5(x4)-|
D|-4~---5~---4~---------------------|


Chorus: Unlonely nights

Guitar 1:
e|---------------------------|
B|---------------------------|
G|--------------------7(x8)--|
D|-0(x8)-7(x8)-12(x8)-7(x8)--| (x2)
A|-0(x8)-7(x8)--9(x8)-5(x8)--|
D|-0(x8)-7(x8)--9(x8)-5(x8)--|

Guitar 2:
e|--------------------------|
B|--------------------------|
G|-7(x8)-9(x8)-11(x8)-7(x8)-|
D|-7(x8)-x(x8)--x(x8)-5(x8)-| (x2)
A|-5(x8)-7(x8)--9(x8)-5(x8)-|
D|-0(x8)--------------------|


Post Chorus:

Guitar 1:
e|---------|
B|---------|
G|---------|
D|-0~---0~-|
A|-0~---0~-|
D|-0~---0~-|

Guitar 2:
e|----5--0-------------------------5--0-----------------|
B|-3---------3p2h3p2------------3---------3p2h3p2h3h5-5-|
G|-------------------2h4--------------------------------|
D|-----------------------2--4---------------------------|
A|------------------------------------------------------|
D|------------------------------------------------------|


Verse 3: you know it's wrong...
Same pattern for "I did it all..."

(RepeatVerse 2, Refrain and Chorus twice)


Interlude:

Guitar 1:
e|---------|
B|---------|
G|---------|
D|-0~---0~-|
A|-0~---0~-|
D|-0~---0~-|

then x means palm mute
e|--------------------------------------------------------------|
B|--------------------------------------------------------------|
G|--------------------------------------------------------------|
D|-0-0-0-0-0-0-0-0-0-0---------7--0-0-0-0-0-0-0-0-0-0-----------| x3
A|-0-0-0-0-0-0-0-0-0-0-4h5p4h5----0-0-0-0-0-0-0-0-0-0-5-4-2h4p2-|
D|-0-0-0-0-0-0-0-0-0-0------------0-0-0-0-0-0-0-0-0-0-----------|
     x x   x x   x x                x x   x x   x x

then * means harmonics
e|-----------------------------------------------------|
B|--------------------------------------------------7*-|
G|--------------------------------------------------7*-|
D|-0-0-0-0-0-0-0-0-0-0---------7--0-0-0-0-0-0-0-0---7*-|
A|-0-0-0-0-0-0-0-0-0-0-4h5p4h5----0-0-0-0-0-0-0-0------|
D|-0-0-0-0-0-0-0-0-0-0------------0-0-0-0-0-0-0-0------|
     x x   x x   x x                x x   x x   x

Guitar 2:
e|--------------------------------------------------------------|
B|--------------------------------------------------------------|
G|-----------------------------7--------------------------------|
D|---------------------4h5p4h5------------------------5-4-2h4p2-| x5
A|---5-4---2-0---4-5----------------5-4---2-0---4-5---5-4-2h4p2-|
D|-0-----0-----0-----0------------0-----0-----0-----0-5-4-2h4p2-|
then
e|----------------------------------------------------------|
B|----------------------------------------------------------|
G|-----------------------------7----------------------------|
D|---------------------4h5p4h5------------------5-4-2-4-5-4-|
A|---5-4---2-0---4-5----------------5-4---2-0---5-4-2-4-5-4-|
D|-0-----0-----0-----0------------0-----0-------5-4-2-4-5-4-|


Outro: Repeat Verse 1


Lyrics


Chords used: Drop D only

D -     000232
DM7 -   000222
Asus4 - x0223x
Bm7 -   x2023x
G9 -    5577xx
D5 -    000xxx
A5 -    777xxx
Bm -    x24432
F#5 -   444xxx


Verse 1:
   D                                     DM7
So whatís the point in all of this? When you will never change
    Asus4
The days have past  The weatherís changed
            Bm7               G9
Should I be sorry? Could I be sorry?


Verse 2:
  D5
I did it all for you Hoping you would see
     A5
Your eyes are dull, your hands are clenched
       Bm            G9
Are we ready? Are we ready


Refrain:
    F#5        G9
But you think about yourself
     F#5                        G9
Only but yourself But what aboutÖ


Chorus 1:
   D5               A5
Un-lonely nights, romantic moments
    Bm             G9
The love The Love, What about them
D5       A5   Bm G9
Throw it all away


Post Chorus: D


Verse 3:
    D5
You know me well You know itís wrong Then what is it you feel?
    A5
You hide behind those perfect smiles
         Bm                          G9
It wonít fool me because you already did

(Repeat Verse 2)

(Repeat Refrain and Chorus 1)


Chorus 2:
    D5                 A5
The perfect dates, the sweetest kisses
    Bm             G9
The love The love, What about them
D5       A5   Bm G9
Throw it all away


Interlude: D5 (x6)

Outro: Repeat Verse 1:

______________________________________________

11.) Emmanuel


Tuning: Drop D all guitars

Intro:

Part 1:

Guitar 1 x = palm mute
e|-----------------------------------|
B|-----------------------------------|
G|--7-7-----6-6----------------------|
D|------4-4-----7-7-----7-7-----7-7--| (x12)
A|------------------5-5-----5-5------|
D|-----------------------------------|
        x x         x x     x x

Guitar 2: Idle


Part 2:

Guitar 1: Remains the part 1

Guitar 2:
e|----------------------|
B|-7(x8)--10(x4)-10(x4)-|
G|-6(x8)---9(x4)--9(x4)-|
D|-4(x8)---0(x4)--7(x4)-| (x4)
A|-4(x8)---0(x4)--7(x4)-|
D|-4(x8)---0(x4)--7(x4)-|


Verse 1: It's so dark, i can't see a thing....

Guitar 1: Up down alternately strumming stroke
e|-----------------------------------------|
B|-----------------------------------------|
G|---------------------------11(x8)-18(x8)-|
D|-4(x16)-0(x8)-7(x8)-9(x16)--x(x8)--x(x8)-| (x2)
A|-4(x16)-0(x8)-7(x8)-9(x16)--9(x8)-16(x8)-|
D|-4(x16)-0(x8)-7(x8)-9(x16)--0(x8)--0(x8)-|

Guitar 2:
e|----------------------------------|
B|----------------------------------|
G|----------------------------------|
D|-4(x16)-0(x8)-7(x8)-9(x16)-0(x16)-| (x2)
A|-4(x16)-0(x8)-7(x8)-9(x16)-0(x16)-|
D|-4(x16)-0(x8)-7(x8)-9(x16)-0(x16)-|


Because you're my light...

Guitar 1:
e|-----------------------------------------|
B|-----------------------------------------|
G|---------------------------11(x8)-18(x8)-|
D|-4(x16)-0(x8)-7(x8)-9(x16)--x(x8)--x(x8)-| (x2)
A|-4(x16)-0(x8)-7(x8)-9(x16)--9(x8)-16(x8)-|
D|-4(x16)-0(x8)-7(x8)-9(x16)--0(x8)--0(x8)-|

Guitar 2:
e|------------|------------|------------|------------|
B|------------|------------|------------|------------|
G|-4-4----4h6-|-6-6----6h7-|-9-9----7h9-|-4-4----4h6-|
D|------4-----|------7-----|------9-----|------4-----| (x2)
A|------------|------------|------------|------------|
D|------------|------------|------------|------------|
       x2           x2             x2


Refrain: Don't let me go, I'm so scared/weak

Guitar 1:
e|--------|
B|--------|
G|--------|
D|-5----9-| (x2)
A|-5----9-|
D|-5----9-|

Guitar 2:
e|-------------------------|---------------------------|
B|-------------------------|---------------------------|
G|-7(x5)-6(x5)-9(x5)-7(x5)-|-11(x5)-9(x5)-14(x5)-9(x5)-|
D|-x(x5)-x(x5)-x(x5)-x(x5)-|--x(x5)-x(x5)--x(x5)-x(x5)-|
A|-5(x5)-4(x5)-7(x5)-5(x5)-|--9(x5)-7(x5)-12(x5)-7(x5)-|
D|-------------------------|---------------------------|
             x3


Chorus 1: You're my only hope tonight

Both:
e|-------------------------------------------|
B|-------------------------------------------|
G|--------------------------------7--7--7--7-|
D|-7(x8)-9(x8)-0(x16)-7(x8)-9(x8)-7--7--7--7-|
A|-7(x8)-9(x8)-0(x16)-7(x8)-9(x8)-5--5--5--5-|
D|-7(x8)-9(x8)-0(x16)-7(x8)-9(x8)-0--0--0--0-|
then
e|-------------------------------------------------------|
B|-------------------------------------------------------|
G|--------------------------------7--7--7--7--6--6--6--6-|
D|-7(x8)-9(x8)-0(x16)-7(x8)-9(x8)-7--7--7--7--6--6--6--6-|
A|-7(x8)-9(x8)-0(x16)-7(x8)-9(x8)-5--5--5--5--4--4--4--4-|
D|-7(x8)-9(x8)-0(x16)-7(x8)-9(x8)-0--0--0--0--0--0--0--0-|


Interlude: Same as verses
e|-----------------------------------------|
B|-----------------------------------------|
G|---------------------------11(x8)-18(x8)-|
D|-4(x16)-0(x8)-7(x8)-9(x16)--x(x8)--x(x8)-| (x2)
A|-4(x16)-0(x8)-7(x8)-9(x16)--9(x8)-16(x8)-|
D|-4(x16)-0(x8)-7(x8)-9(x16)--0(x8)--0(x8)-|

Guitar 2:
e|----------------------------------|
B|----------------------------------|
G|----------------------------------|
D|-4(x16)-0(x8)-7(x8)-9(x16)-0(x16)-| (x2)
A|-4(x16)-0(x8)-7(x8)-9(x16)-0(x16)-|
D|-4(x16)-0(x8)-7(x8)-9(x16)-0(x16)-|


Verse 2: Same as Verse 1:


Refrain: Same and add this 3rd guitar

Guitar 3:
e|---------------|
B|---------------|
G|---6h7p6h7p6h7-|
D|-7-------------| (Repeat Many Times)
A|---------------|
D|---------------|


Chorus 2: You're my only hope tonight...

Both:
e|-------------------------------------------|
B|-------------------------------------------|
G|--------------------------------7--7--7--7-|
D|-7(x8)-9(x8)-0(x16)-7(x8)-9(x8)-7--7--7--7-|
A|-7(x8)-9(x8)-0(x16)-7(x8)-9(x8)-5--5--5--5-|
D|-7(x8)-9(x8)-0(x16)-7(x8)-9(x8)-0--0--0--0-|

Guitar 1:
e|-------------------------------------------------------|
B|-------------------------------------------------------|
G|--------------------------------7--7--7--7--6--6--6--6-|
D|-7(x8)-9(x8)-0(x16)-7(x8)-9(x8)-7--7--7--7--6--6--6--6-|
A|-7(x8)-9(x8)-0(x16)-7(x8)-9(x8)-5--5--5--5--4--4--4--4-|
D|-7(x8)-9(x8)-0(x16)-7(x8)-9(x8)-0--0--0--0--0--0--0--0-|

Guitar 2:
e|-------------------------------------------------------|
B|-------------------------------------------------------|
G|-------------------------------------------------------|
D|-7(x8)-9(x8)-0(x16)-7(x8)-9(x8)-5--5--5--5--5--5--5--5-|
A|-7(x8)-9(x8)-0(x16)-7(x8)-9(x8)-5--5--5--5--5--5--5--5-|
D|-7(x8)-9(x8)-0(x16)-7(x8)-9(x8)-5--5--5--5--5--5--5--5-|


Ending:

Guitar 1:
e|---
B|---
G|---
D|-0-
A|-0-
D|-0-

Guitar 2: Very fast!!! up down picking gamitin nyo para di mangawit kamay ninyo
e|---------------------------------|
B|---------------------------------|
G|-7---------6---------------------|
D|---4-5-7-----7---4h7p4-------4---| (Repeat many times till end)
A|---------5-----5-------5h7p5---5-|
D|---------------------------------|

Guitar 1:
e|--------------------|
B|--------------------|
G|--------------------|
D|-4(x5)--0(x5)-7(x5)-| (x2)
A|-4(x5)--0(x5)-7(x5)-|
D|-4(x5)--0(x5)-7(x5)-|
then
e|----------------------|
B|-7(x8)--10(x4)-10(x4)-|
G|-6(x8)---9(x4)--9(x4)-|
D|-4(x8)---0(x4)--7(x4)-| (x4)
A|-4(x8)---0(x4)--7(x4)-|
D|-4(x8)---0(x4)--7(x4)-|
then
e|--------------------|
B|--------------------|
G|--------------------|
D|-4(x16)-0(x8)-7(x8)-| (x4)
A|-4(x16)-0(x8)-7(x8)-|
D|-4(x16)-0(x8)-7(x8)-|
then
e|---------------|
B|---------------|
G|---------------|
D|-4---0---7---4-|
A|-4---0---7---4-|
D|-4---0---7---4-|


Lyrics

Itís so dark
I canít see a thing
I need your help
I need you here
Because youíre my light
Youíre my strength
Donít let me go, swear
Donít let me go
Iím so scared
Hold my hands
Keep me from falling
Youíre my only hope tonight
To save me from myself
Because I donít know if I can go on without you
Youíre my only cure tonight
Hold me now so ill be safe
Itís so cold
Disoriented sense again
But it feels like home
I think Iím home
Because youíre my warmth
Youíre my strength
Donít let me go, swear
Donít let me go
Iím so weak
Dry my tears keep it from falling

____________________________________________

12.) Open Wound

Key: D

Tuning: Standard EADGBe all guitars

Intro: Bm

Guitar 1:
e|---------|
B|-3~---2~-|
G|-4~---4~-|
D|-4~---4~-| (x2)
A|-2~---2~-|
E|---------|

Guitar 2:
e|---------------|-------------|
B|-------------3-|-----------2-|
G|---0-----0-----|---0-----0---|
D|-------4-------|-------4-----| (x2)
A|-2---2-----2---|-2---2-----2-|
E|---------------|-------------|
         x2             x2


Verse 1: Same as Intro:


Chorus 1: Runaway but it's no use...

Guitar 1:
e|------------|
B|------------|
G|----4--2----|
D|-5--4--2--2-| (x2)
A|-5--2--0--2-|
E|-3--------0-|

Guitar 2: will only enter at 0:45
e|-5-----3---------|
B|---3-----3---2-3-|
G|-----2-----2-----|
D|-----------------| (x8)
A|-----------------|
E|-----------------|


Post Chorus: Bm

Guitar 1:
e|-------------|
B|-3-----2-----|
G|-4-----4-----|
D|-4(x7)-4(x7)-| (x2)
A|-2-----2-----|
E|-------------|

Guitar 2:
e|---------------|-------------|
B|-------------3-|-----------2-|
G|---0-----0-----|---0-----0---|
D|-------4-------|-------4-----| (x2)
A|-2---2-----2---|-2---2-----2-|
E|---------------|-------------|
         x2             x2


Verse 2: Same as Post Chorus


Chorus 2:

Guitar 1:
e|------------|------------|
B|------------|------------|
G|----4--2----|-4--2-------|
D|-5--4--2--2-|-4--2--2--5-|
A|-5--2--0--2-|-2--0--2--5-|
E|-3--------0-|-------0--3-|

Guitar 2:
e|-5-----3---------|
B|---3-----3---2-3-|
G|-----2-----2-----|
D|-----------------| (x8)
A|-----------------|
E|-----------------|


Bridge:

Bass:
G|-------------------------------------------------------------|
D|-------------------------------------------------------------|
A|-2-2-2--2-2-2--0-0-0--5-5-5----------------------------------| (x8)
E|-----------------------------3-3-3-3-3-3-3-3-3-3-3-3-3-3-3-3-|

Guitar 3: will enter at 2:04
e|---------2---------5--2---3---5-|
B|---3-2-3-----3-2-3------3---3---|
G|-2---------2--------------------|
D|--------------------------------|
A|--------------------------------|
E|--------------------------------|

Guitar 1: 2:15
e|--------------------------|
B|--------------------------|
G|-4-----2-----7------------|
D|-4(x8)-2(x4)-7(x8)-5------| (x8)
A|-2-----0-----5-----5(x16)-|
E|-------------------3------|

Guitar 2: will enter at 2:19
e|---------------------------|
B|---------------------------|
G|---------------------------|
D|-7-5-4-5-----4-5-7-5-4-5---| (x4)
A|---------5-7-------------5-|
E|---------------------------|

Guitar 3: will enter at 2:26
e|---------5-5-----|---------0-0-------------2-------|
B|-2-2-3-3-----3-3-|-2-2-3-3-----3-3-2-2-3-3---3-2-3-|
G|-----------------|---------------------------------|
D|-----------------|---------------------------------| (x2)
A|-----------------|---------------------------------|
E|-----------------|---------------------------------|
         x2                           x2


Chorus 3:

Guitar 1:
e|----------------------------|------------|
B|--------3-5-2--2-3-2--------|------------|
G|-7-7-6--4-4-4--2-2-2--------|-4--2-------|
D|-7-7-7--4-4-4--2-2-2--2-4-5-|-4--2--2--5-|
A|-5-5-5--2-2-2--0-0-0--2-4-5-|-2--0--2--5-|
E|----------------------0-2-3-|-------0--3-|
            Silent Bar

Guitar 2:
e|-5-----3---------|
B|---3-----3---2-3-|
G|-----2-----2-----|
D|-----------------| (x8)
A|-----------------|
E|-----------------|

Guitar 3:
e|---------0-------|
B|-2-2-3-3---3-2-3-|
G|-----------------|
D|-----------------| (x8)
A|-----------------|
E|-----------------|


Outro: when will this end?... Use Bridge Chords

Repeat Intro


Lyrics:
This is tearing me apart
I donít know what I feel now
My head is caving in
My bodyís getting tired
The sound of selfishness
Is killing me right now
When will this end? When will this stop?
Run away but itís no use
This is wrong oh, so wrong
Iíll drown myself and never wake up
Iíll die alone,
I want to reach out
But itís me thatís keeping me
From helping myself
I know its lame and thatís a shame
Please donít do this
I canít take it anymore
Just as I was forgetting you
You opened closed wounds

_______________________________________________

13.) Don't Take Me From Me

Key: D

Tuning: Standard EADGBe all 3 guitars

Verse 1: Say what you want to

Guitar 1:
e|------------|
B|------------|
G|-4--3-------|
D|-4--4--2--5-|
A|-2--1--2--5-|
E|-------0--3-|

Guitar 2: Idle


Don't waste yourself

Guitar 1:
e|------------|
B|------------|
G|-4--4-------|
D|-4--3--7--6-|
A|-2--1--7--7-|
E|-------5--4-|

Guitar 2:
e|------------|
B|------------|
G|-4--6--7--4-|
D|-x--x--x--x-|
A|-2--4--5--2-|
E|------------|


Refrain: They may cloud your reasons...

Guitar 1:
e|-----------------------------------------|
B|-----------------------------------------|
G|-----------------------------------------|
D|-5------4------5------7-7--7-7--7-7--8-8-|
A|-5(x16)-5(x16)-5(x16)-7-7--7-7--7-7--9-9-|
E|-3------2------3------5-5--5-5--5-5--6-6-|

Guitar 2:
e|-5---2-3-2-------|
B|---3-------3-2-3-|
G|-----------------|
D|-----------------| (x4)
A|-----------------|
E|-----------------|


Chorus: I'm not telling you what to be...

Guitar 1:
e|------------|------------|
B|------------|------------|
G|-7--7--7----|-4--2-------|
D|-7--7--7--5-|-4--2--2--5-|
A|-5--------5-|-2--0--2--5-|
E|----5--7--3-|-------0--3-|

Guitar 2:
e|------------|-----------------------0----|
B|------------|----------2---------------2-|
G|-7------11--|-------2-----2--------------|
D|-x-------x--|-2h4p2----------2h4p2-------|
A|-5-------9--|----------------------------|
E|------------|----------------------------|
                            x2

Post Chorus:

Guitar 1:
e|---------|---------|
B|---------|---------|
G|-4-4-4-4-|---------|
D|-4-4-4-4-|-5-5-5-5-|
A|-2-2-2-2-|-5-5-5-5-|
E|---------|-3-3-3-3-|
      x2        x2

Guitar 2:
e|-2-2-2-------5-5-5-5-|-2-2-2---------------|
B|-------3-3-3---------|-------3-3-3-2h3p2h3-|
G|---------------------|---------------------|
D|---------------------|---------------------| (x2)
A|---------------------|---------------------|
E|---------------------|---------------------|


Verse 2: You donít need them to prove them...

Guitar 1:
e|------------|
B|------------|
G|-4--4-------|
D|-4--3--7--6-|
A|-2--1--7--7-|
E|-------5--4-|

Guitar 2:* means harmonics
e|-------------------|
B|----5*-------------|
G|---------pickslide-|
D|-------------------|
A|-------------------|
E|-------------------|


Itís best if you let it go

Guitar 1:
e|------------|
B|------------|
G|-4--4-------|
D|-4--3--7--6-|
A|-2--1--7--7-|
E|-------5--4-|

Guitar 2:
e|------------|
B|------------|
G|-4--6--7--4-|
D|-x--x--x--x-|
A|-2--4--5--2-|
E|------------|


(Repeat Refrain and chorus)


Bridge:: Bass

Guitar 1: Idle

Guitar 2:
e|--------|
B|----5*--|
G|--------|
D|--------|
A|--------|
E|--------|


then at 2:15

Guitar 1:
e|---------------------0-|
B|-------3---2---2h3-0---|
G|-----4---4---2---------|
D|---4-------------------| (x6)
A|-2---------------------|
E|-----------------------|

Guitar 2: Idle


then at 2:32

Guitar 1:
e|--------2h3p2---|-------------------------|
B|----------------|-------------------------|
G|-4~--7--------5*|-4-----3-----------------|
D|-4~--x----------|-4(x4)-4(x4)-7(x4)-6(x4)-|
A|-2~--5----------|-2-----1-----7-----7-----|
E|----------------|-------------5-----4-----|
                        repeat many times

Guitar 2:
e|----------12p10-|--------------------|
B|----------------|--------------------|
G|----------------|-4--6--7--9---------|
D|-9~-------------|-x--x--x--x---------|
A|-9~--9/10-------|-2--4--5--7---------|
E|-7~-------------|--------------------|
                     repeat many times

Guitar 3:
e|-2-|-2-2-2-0-0-0-5-5-5-5-5-5-5-5-5-5-|----------------|
B|-3-|---------------------------------|----------------|
G|-4-|---------------------------------|-11--9--7--6--7-|
D|-4-|---------------------------------|--x--x--x--x--x-|
A|-2-|---------------------------------|--9--7--5--4--5-|
E|---|---------------------------------|----------------|
              repeat many times


then at 3:26

Guitar 1:
e|--------------|-------------------|----|
B|--------------|-------------------|----|
G|--------------|-------------------|-4~-|
D|-2------2-----|-5-----7-----8-----|-4~-|
A|-2(x4)--2(x4)-|-5(x8)-7(x4)-9(x4)-|-2~-|
E|-0------0-----|-3-----5-----6-----|----|

Guitar 2:
e|---------------|--------------|----|
B|---------------|--------------|-5*-|
G|-11-----11-----|-7/14--16--18-|----|
D|--x(x5)--x(x5)-|-x/-x---x---x-|----|
A|--9------9-----|-5/12--14--16-|----|
E|---------------|--------------|----|


Don't give up!! Don't give in!! Let it go!! This is who we are!!!


Lyrics:
Say what you want to as long as you know you are right
Donít waste yourself, youíre not like them
Youíre better than this

They may cloud your reasons
And they will try to break you
But donít forget where you came from
Everything will be fine

Iím not telling you what to be
You know what you want
Remember what youíve learned
It will be okay

You donít need them to prove them youíre something that youíre not
Itís best if you let it go
Then youíll realize Iím right

______________________________________________

14.) An Angel

Key: G

Tuning: Standard EADGBe

Chords used:
G -   320033
C9 -  x32033
G/B - x2x033
B7 -  x21202
D -   xx0232
C -   x32010
Em -  022000

Intro:
           G                      C9
e|----------------------|----------------------|
B|------3----0----------|------3----0----------|
G|----0----0------0---0-|----0----0------0---0-|
D|--------------0---0---|--------------0---0---|
A|----------------------|-3--------------------|
E|-3--------------------|----------------------|
           x2                       x2
then
           G                       C9
e|----------------------|------------------------|
B|------3----0----------|------3----0------------|
G|----0----0------0---0-|----0----0------0---0---|
D|--------------0---0---|--------------0---0-----|
A|----------------------|-3--------------------3-|
E|-3--------------------|------------------------|
           x2


Verse 1: Same as intro plucking
     G                        C
It's our eyes grow weary, our lips tight of silence
G/B                     C
It was a long day, it's time to go to bed

       G/B           C9
e|-------------|-------------|
B|-------3-----|-------3-----|
G|-----0-----0-|-----0-----0-|
D|---0-----0---|---0-----0---|
A|-2-----------|-3-----------|
E|-------------|-------------|
        x4           x4

    G/B                   C9
Coz lying next to you, is all that I want tonight
    G/B                    C9
You make me feel secure, I hope back and stop time


Chorus:
   G                        C9
So peaceful and silent, I'd seen an angel
 G/B                      B7
Sleeping all night away, sleeping all night away


Verse 2:
     G                          C9
It's our eyes grow slowly, with words are still unspoken
  G/B                                 C9
I don't know what else to say but goodnight
    G/B                   C9
Coz lying next to you, is all that I want tonight
    G/B                    C9
You make me feel secure, I hope back and stop time


Interlude:
           C9                 D
e|-3-3-3-3--2-2-2-2-|-0-0-0-0--2-2-2-2-|
B|-3-3-3-3--3-3-3-3-|-3-3-3-3--3-3-3-3-|
G|-0--------0-------|-2--------2-------|
D|-2--------2-------|-0--------0-------|
A|-3--------3-------|------------------|
E|------------------|------------------|


(Repeat Chorus 1)


Chorus 2:
   G                        C9
So peaceful and silent, I'd seen an angel
    G/B                  B7
And I'll try anything to wake you up again


Bridge:
C                   G/B C                  G/B
  I made mistakes before, I promise not to do it again
C        G/B              C               D            G
  Let me ask you just one question, Can I lean on your shoulder?
     C9             Em      C
your shoulder, your shoulder

(Repeat Chorus 1 and 2)
(Repeat Intro)
Related for Every Moss And Cobweb tab