Guitaretab - guitar tabs
Song name
# A B C D E F G H I J K L M N O P Q R S T U V W X Y Z

Typecast - Phoenix tab

PHOENIX
By: Typecast

Standard Tuning
	
*=harmonics

Intro:

Guitar 2 (distortion)
e---------------|
B--------7*-----|
G----0/5*-------|
D---------------|
A---------------|
E---------------|

e------------------------|
B------------------------|
G------------------------|
D--55550-(break)-7-4-----|
A--55550-------------5-4-|
E--33330-----------------|
                               
e----------------------------|
B----------------------------|
G----------------------------|
D--55550-(break)-7-4---------|
A--55550-------------5-4---7-|
E--33330-----------------7--|
                               Guitar 1(clean)
e------------------------|     e-12*---|
B------------------------|     B-------|
G------------------------|     G-------|
D--55550-(break)-7-4-----|     D-------|
A--55550-------------5-4-|     A-------|
E--33330-----------------|     E-------|

e----------------------------|
B----------------------------|
G----------------------------|
D--55550-(break)-7-4---------|
A--55550-------------5-4---7-|
D--33330-----------------7---|

Guitar 1(distortion)
e--------|
B--------|
G--------|
D--55550-|4x
A--55550-|
E--33330-|

Guitar 2(distortion)
e-------------------------------------------------------------|
B---------------5h7-------------------------5h7---------------|
G-----4-4-4-4-7-----4h6-2h4-------4-4-4-4-7-----4h6-2h4-------|
D-----4-4-4-4-7-------------2h4-2-4-4-4-4-7-------------2h4/7-|2x
A-----2-2-2-2-5-------------------2-2-2-2-5-------------------|
E-------------------------------------------------------------|











Verse 1:

Guitar 1(distortion)
e----------------|
B----------------|
G----------------|
D--55550-(break)-|
A--55550---------|
E--33330---------|
                     Ill rise above the clouds!
Guitar 2(distortion)
e------------------|
B------------------|
G---44447----------|
D---44447(break)---|
A---22225----------|
E------------------|
          

Guitar 1(distortion)
e---------------------------|
B---------------------------|
G---7-----------------------|
D---7---555555555-5-5-5-5-0-|
A---5---555555555-5-5-5-5-0-|
E-------333333333-3-3-3-3-0-|
                                  Youre voice kept me alive
Guitar 2(distortion)
e---12*-------------------------|
B---12*-------------------------|
G---12*-7-8-10-8/7-7-8-10-8/7-7-|
D-------x-x-x-x/x-x-x-x-x/x-7-|
A-------5-6-8--6/5-5-6-8-6/5-5-|
E-------------------------------|
           
Guitar 1(distortion)
e----------------|
B----------------|
G----------------|
D--55550-(break)-|
A--55550---------|
E--33330---------|
                     Ill spread my wings and fly!
Guitar 2(distortion)
e-----------------|
B-----------------|
G--44447----------|
D--44447(break)---|
A--22225----------|
E-----------------|
          
[ Tab from: http://www.guitaretab.com/t/typecast/140432.html ]
Guitar 1(distortion)
e--------------------------|
B--------------------------|
G--7-----------------------|
D--7---555555555-5-5-5-5-0-|
A--5---555555555-5-5-5-5-0-|
E------333333333-3-3-3-3-0-|
                                  Ill return for you again my love
Guitar 2(distortion)
e--12*-------------------------|
B--12*-------------------------|
G--12*-7-8-10-8/7-7-8-10-8/7-7-|
D------x-x-x-x/x-x-x-x-x/x-7-|
A------5-6-8--6/5-5-6-8-6/5-5-|
E------------------------------|




Refrain: 

Guitar 1(distortion)
e-------------------------------------------------|
B-------------------------------------------------|
G-------------------------------------------------|
D--222222222---555555555----222222222---555555555-|
A--222222222---555555555----222222222---555555555-|
E--000000000---333333333----000000000---333333333-|

       Ive kept all that Ive gained 
       Your smile and how your eyes shine 
       Am I strong enough to be with you again? 
       If Im not, Ill stretch my arms for you to hold 

Guitar 2(distortion)
e-------------------------------------------------------------------|
B-------------------------------------------------------------------|
G------------7-8-10-8/7-7-8-7-8-----------7-8-10-8/7-7-8-7-8-7-8-10-|
D--222222222-x-x-x-x/x-x-x-x-x-222222222-x-x-x-x/x-x-x-x-x-7------|
A--222222222-5-6-8-6/5-5-6-5-6-222222222-5-6-8-6/5-5-6-5-6-5------|
E--000000000--------------------000000000---------------------------|

Chorus:

Guitar 1(distortion)         
e-----------------------------------------------------|
B-----------------------------------------------------|
G---777777777-------------------------------7-(break)-|
D---777777777-555555555-222222222-555555555-7---------|
A---555555555-555555555-222222222-555555555-5---------|
E-------------333333333-000000000-000000000-----------|

Im ready 
Hold me tight once more 
And slowly, 
Well pick up the pieces weve lost  

Guitar 2(distortion)
e|----------------------------------------------------|
B|----------------------------------------------------|
G|----------------------------------------------------|
D|--000000000-555555555-222222222-555555555-0-(break)-|
A|--000000000-555555555-222222222-555555555-0---------|
E|--000000000-333333333-000000000-333333333-0---------|

Adlib:

Both guitars (distortion)
e--------------------------------|
B--------------------------------|
G------7-7-----9-9-----11-----77-|
D--000-----000-----000----000----|4X
A--000-----000-----000----000----|
E--000-----000-----000----000----|

e-------------------------------------------------------------------|
B-------------------------------------------------------------------|
G---------7777--------10-9-10-9--------12-11-12-11--------8-7-8-7---|
D--000000------000000-----------000000-------------000000---------0-|
A--000000------000000-----------000000-------------000000---------0-|
E--000000------000000-----------000000-------------000000---------0-|

(Repeat verse pattern)
(Repeat refrain pattern)
(Repeat chorus pattern)
(Repeat adlib pattern)

Plzzzrate this tab^^
Hi sa mga ka schoolmate ko dyan sa cavite >.<
Related for Phoenix tab