Song name
# A B C D E F G H I J K L M N O P Q R S T U V W X Y Z

Typecast - Emmanuel tab

Typecast
Emmanuel
Every Moss and Cobweb
Tabbed by: paramore_fans@yahoo.com
Add nyo ako sa friendster n2sed_182@yahoo.com

Finally may Christian song din pala ang Typecast, this is titled Emmanuel

Tuning: Drop D all guitars

Intro:

Part 1:

Guitar 1 x = palm mute
e|-----------------------------------|
B|-----------------------------------|
G|--7-7-----6-6----------------------|
D|------4-4-----7-7-----7-7-----7-7--| (x12)
A|------------------5-5-----5-5------|
D|-----------------------------------|
        x x         x x     x x

Guitar 2: Idle


Part 2:

Guitar 1: Remains the part 1

Guitar 2:
e|----------------------|
B|-7(x8)--10(x4)-10(x4)-|
G|-6(x8)---9(x4)--9(x4)-|
D|-4(x8)---0(x4)--7(x4)-| (x4)
A|-4(x8)---0(x4)--7(x4)-|
D|-4(x8)---0(x4)--7(x4)-|


Verse 1: It's so dark, i can't see a thing....

Guitar 1: Up down alternately strumming stroke
e|-----------------------------------------|
B|-----------------------------------------|
G|---------------------------11(x8)-18(x8)-|
D|-4(x16)-0(x8)-7(x8)-9(x16)--x(x8)--x(x8)-| (x2)
A|-4(x16)-0(x8)-7(x8)-9(x16)--9(x8)-16(x8)-|
D|-4(x16)-0(x8)-7(x8)-9(x16)--0(x8)--0(x8)-|

Guitar 2:
e|----------------------------------|
B|----------------------------------|
G|----------------------------------|
D|-4(x16)-0(x8)-7(x8)-9(x16)-0(x16)-| (x2)
A|-4(x16)-0(x8)-7(x8)-9(x16)-0(x16)-|
D|-4(x16)-0(x8)-7(x8)-9(x16)-0(x16)-|


Because you're my light...

Guitar 1:
e|-----------------------------------------|
B|-----------------------------------------|
G|---------------------------11(x8)-18(x8)-|
D|-4(x16)-0(x8)-7(x8)-9(x16)--x(x8)--x(x8)-| (x2)
A|-4(x16)-0(x8)-7(x8)-9(x16)--9(x8)-16(x8)-|
D|-4(x16)-0(x8)-7(x8)-9(x16)--0(x8)--0(x8)-|

Guitar 2:
e|------------|------------|------------|------------|
B|------------|------------|------------|------------|
G|-4-4----4h6-|-6-6----6h7-|-9-9----7h9-|-4-4----4h6-|
D|------4-----|------7-----|------9-----|------4-----| (x2)
A|------------|------------|------------|------------|
D|------------|------------|------------|------------|
       x2           x2             x2


Refrain: Don't let me go, I'm so scared/weak

Guitar 1:
e|--------|
B|--------|
G|--------|
D|-5----9-| (x2)
A|-5----9-|
D|-5----9-|

Guitar 2:
e|-------------------------|---------------------------|
B|-------------------------|---------------------------|
G|-7(x5)-6(x5)-9(x5)-7(x5)-|-11(x5)-9(x5)-14(x5)-9(x5)-|
D|-x(x5)-x(x5)-x(x5)-x(x5)-|--x(x5)-x(x5)--x(x5)-x(x5)-|
A|-5(x5)-4(x5)-7(x5)-5(x5)-|--9(x5)-7(x5)-12(x5)-7(x5)-|
D|-------------------------|---------------------------|
             x3


Chorus 1: You're my only hope tonight

Both:
e|-------------------------------------------|
B|-------------------------------------------|
G|--------------------------------7--7--7--7-|
D|-7(x8)-9(x8)-0(x16)-7(x8)-9(x8)-7--7--7--7-|
A|-7(x8)-9(x8)-0(x16)-7(x8)-9(x8)-5--5--5--5-|
D|-7(x8)-9(x8)-0(x16)-7(x8)-9(x8)-0--0--0--0-|
then
e|-------------------------------------------------------|
B|-------------------------------------------------------|
G|--------------------------------7--7--7--7--6--6--6--6-|
D|-7(x8)-9(x8)-0(x16)-7(x8)-9(x8)-7--7--7--7--6--6--6--6-|
A|-7(x8)-9(x8)-0(x16)-7(x8)-9(x8)-5--5--5--5--4--4--4--4-|
D|-7(x8)-9(x8)-0(x16)-7(x8)-9(x8)-0--0--0--0--0--0--0--0-|


Interlude: Same as verses
e|-----------------------------------------|
B|-----------------------------------------|
G|---------------------------11(x8)-18(x8)-|
D|-4(x16)-0(x8)-7(x8)-9(x16)--x(x8)--x(x8)-| (x2)
A|-4(x16)-0(x8)-7(x8)-9(x16)--9(x8)-16(x8)-|
D|-4(x16)-0(x8)-7(x8)-9(x16)--0(x8)--0(x8)-|

Guitar 2:
e|----------------------------------|
B|----------------------------------|
G|----------------------------------|
D|-4(x16)-0(x8)-7(x8)-9(x16)-0(x16)-| (x2)
A|-4(x16)-0(x8)-7(x8)-9(x16)-0(x16)-|
D|-4(x16)-0(x8)-7(x8)-9(x16)-0(x16)-|


Verse 2: Same as Verse 1:


Refrain: Same and add this 3rd guitar

Guitar 3:
e|---------------|
B|---------------|
G|---6h7p6h7p6h7-|
D|-7-------------| (Repeat Many Times)
A|---------------|
D|---------------|


Chorus 2: You're my only hope tonight...

Both:
e|-------------------------------------------|
B|-------------------------------------------|
G|--------------------------------7--7--7--7-|
D|-7(x8)-9(x8)-0(x16)-7(x8)-9(x8)-7--7--7--7-|
A|-7(x8)-9(x8)-0(x16)-7(x8)-9(x8)-5--5--5--5-|
D|-7(x8)-9(x8)-0(x16)-7(x8)-9(x8)-0--0--0--0-|

Guitar 1:
e|-------------------------------------------------------|
B|-------------------------------------------------------|
G|--------------------------------7--7--7--7--6--6--6--6-|
D|-7(x8)-9(x8)-0(x16)-7(x8)-9(x8)-7--7--7--7--6--6--6--6-|
A|-7(x8)-9(x8)-0(x16)-7(x8)-9(x8)-5--5--5--5--4--4--4--4-|
D|-7(x8)-9(x8)-0(x16)-7(x8)-9(x8)-0--0--0--0--0--0--0--0-|

Guitar 2:
e|-------------------------------------------------------|
B|-------------------------------------------------------|
G|-------------------------------------------------------|
D|-7(x8)-9(x8)-0(x16)-7(x8)-9(x8)-5--5--5--5--5--5--5--5-|
A|-7(x8)-9(x8)-0(x16)-7(x8)-9(x8)-5--5--5--5--5--5--5--5-|
D|-7(x8)-9(x8)-0(x16)-7(x8)-9(x8)-5--5--5--5--5--5--5--5-|


Ending:

Guitar 1:
e|---
B|---
G|---
D|-0-
A|-0-
D|-0-

Guitar 2: Very fast!!! up down picking gamitin nyo para di mangawit kamay ninyo
e|---------------------------------|
B|---------------------------------|
G|-7---------6---------------------|
D|---4-5-7-----7---4h7p4-------4---| (Repeat many times till end)
A|---------5-----5-------5h7p5---5-|
D|---------------------------------|

Guitar 1:
e|--------------------|
B|--------------------|
G|--------------------|
D|-4(x5)--0(x5)-7(x5)-| (x2)
A|-4(x5)--0(x5)-7(x5)-|
D|-4(x5)--0(x5)-7(x5)-|
then
e|----------------------|
B|-7(x8)--10(x4)-10(x4)-|
G|-6(x8)---9(x4)--9(x4)-|
D|-4(x8)---0(x4)--7(x4)-| (x4)
A|-4(x8)---0(x4)--7(x4)-|
D|-4(x8)---0(x4)--7(x4)-|
then
e|--------------------|
B|--------------------|
G|--------------------|
D|-4(x16)-0(x8)-7(x8)-| (x4)
A|-4(x16)-0(x8)-7(x8)-|
D|-4(x16)-0(x8)-7(x8)-|
then
e|---------------|
B|---------------|
G|---------------|
D|-4---0---7---4-|
A|-4---0---7---4-|
D|-4---0---7---4-|


___________________________________________________________

Lyrics

Its so dark
I cant see a thing
I need your help
I need you here
Because youre my light
Youre my strength
Dont let me go, swear
Dont let me go
Im so scared
Hold my hands
Keep me from falling
Youre my only hope tonight
To save me from myself
Because I dont know if I can go on without you
Youre my only cure tonight
Hold me now so ill be safe
Its so cold
Disoriented sense again
But it feels like home
I think Im home
Because youre my warmth
Youre my strength
Dont let me go, swear
Dont let me go
Im so weak
Dry my tears keep it from falling
Tap to rate this tab
# A B C D E F G H I J K L M N O P Q R S T U V W X Y Z