Guitaretab - guitar tabs
Song name
# A B C D E F G H I J K L M N O P Q R S T U V W X Y Z

Typecast - Open Wound tab

Typecast
Open Wound
Every Moss and Cobweb
Tabbed by: paramore_fans@yahoo.com

Tuning: Standard EADGBe all guitars

Intro: Bm

Guitar 1:
e|---------|
B|-3~---2~-|
G|-4~---4~-|
D|-4~---4~-| (x2)
A|-2~---2~-|
E|---------|

Guitar 2:
e|---------------|-------------|
B|-------------3-|-----------2-|
G|---0-----0-----|---0-----0---|
D|-------4-------|-------4-----| (x2)
A|-2---2-----2---|-2---2-----2-|
E|---------------|-------------|
         x2             x2


Verse 1: Same as Intro:


Chorus 1: Runaway but it's no use...

Guitar 1:
e|------------|
B|------------|
G|----4--2----|
D|-5--4--2--2-| (x2)
A|-5--2--0--2-|
E|-3--------0-|

Guitar 2: will only enter at 0:45
e|-5-----3---------|
B|---3-----3---2-3-|
G|-----2-----2-----|
D|-----------------| (x8)
A|-----------------|
E|-----------------|


Post Chorus: Bm

Guitar 1:
e|-------------|
B|-3-----2-----|
G|-4-----4-----|
D|-4(x7)-4(x7)-| (x2)
A|-2-----2-----|
E|-------------|

Guitar 2:
e|---------------|-------------|
B|-------------3-|-----------2-|
G|---0-----0-----|---0-----0---|
D|-------4-------|-------4-----| (x2)
A|-2---2-----2---|-2---2-----2-|
E|---------------|-------------|
         x2             x2


Verse 2: Same as Post Chorus


Chorus 2:

Guitar 1:
e|------------|------------|
B|------------|------------|
G|----4--2----|-4--2-------|
D|-5--4--2--2-|-4--2--2--5-|
A|-5--2--0--2-|-2--0--2--5-|
E|-3--------0-|-------0--3-|

Guitar 2:
e|-5-----3---------|
B|---3-----3---2-3-|
G|-----2-----2-----|
D|-----------------| (x8)
A|-----------------|
E|-----------------|


Bridge:

Bass:
G|-------------------------------------------------------------|
D|-------------------------------------------------------------|
A|-2-2-2--2-2-2--0-0-0--5-5-5----------------------------------| (x8)
E|-----------------------------3-3-3-3-3-3-3-3-3-3-3-3-3-3-3-3-|
[ Tab from: http://www.guitaretab.com/t/typecast/151673.html ]
Guitar 3: will enter at 2:04
e|---------2---------5--2---3---5-|
B|---3-2-3-----3-2-3------3---3---|
G|-2---------2--------------------|
D|--------------------------------|
A|--------------------------------|
E|--------------------------------|

Guitar 1: 2:15
e|--------------------------|
B|--------------------------|
G|-4-----2-----7------------|
D|-4(x8)-2(x4)-7(x8)-5------| (x8)
A|-2-----0-----5-----5(x16)-|
E|-------------------3------|

Guitar 2: will enter at 2:19
e|---------------------------|
B|---------------------------|
G|---------------------------|
D|-7-5-4-5-----4-5-7-5-4-5---| (x4)
A|---------5-7-------------5-|
E|---------------------------|

Guitar 3: will enter at 2:26
e|---------5-5-----|---------0-0-------------2-------|
B|-2-2-3-3-----3-3-|-2-2-3-3-----3-3-2-2-3-3---3-2-3-|
G|-----------------|---------------------------------|
D|-----------------|---------------------------------| (x2)
A|-----------------|---------------------------------|
E|-----------------|---------------------------------|
         x2                           x2


Chorus 3:

Guitar 1:
e|----------------------------|------------|
B|--------3-5-2--2-3-2--------|------------|
G|-7-7-6--4-4-4--2-2-2--------|-4--2-------|
D|-7-7-7--4-4-4--2-2-2--2-4-5-|-4--2--2--5-|
A|-5-5-5--2-2-2--0-0-0--2-4-5-|-2--0--2--5-|
E|----------------------0-2-3-|-------0--3-|
            Silent Bar

Guitar 2:
e|-5-----3---------|
B|---3-----3---2-3-|
G|-----2-----2-----|
D|-----------------| (x8)
A|-----------------|
E|-----------------|

Guitar 3:
e|---------0-------|
B|-2-2-3-3---3-2-3-|
G|-----------------|
D|-----------------| (x8)
A|-----------------|
E|-----------------|


Outro: when will this end?... Use Bridge Chords

Repeat Intro

_________________________________________
This is tearing me apart
I donít know what I feel now
My head is caving in
My bodyís getting tired
The sound of selfishness
Is killing me right now
When will this end? When will this stop?
Run away but itís no use
This is wrong oh, so wrong
Iíll drown myself and never wake up
Iíll die alone,
I want to reach out
But itís me thatís keeping me
From helping myself
I know its lame and thatís a shame
Please donít do this
I canít take it anymore
Just as I was forgetting you
You opened closed wounds
Related for Open Wound tab