Song name
# A B C D E F G H I J K L M N O P Q R S T U V W X Y Z

Typecast - This Kind Of Silence tab

Song:This Kind of Silence
Albumn:How Your Influence Betrays You
Artist:Typecast
Guitar Tabber:Ryan Manongdo/19/Vancouver,Canada
              no_falter0x@yahoo.com(YM,friendster,facebook&myspace)

For your any comments, questions, or suggestions, just post a comment, pm or mail me.

Gtr.Legends:
b  - bend
/\ - Slide
p  - pull-off
h  - hammer-on
x  - dead string
~  - let it ring
.  - palm muting

Gtr.Tuning:Drop D


Intro prt.1
Gtr.1            Gtr.2
e|-------------  ---------------------------|
B|-------------  ---------------------------|
G|-------------  ---------------------------|
D|-0~~-----0---  -77777777777777777-----0---|
A|-0~~-----0---  -55555555555555555-----0---|
D|-0~~-----0---  -00000000000000000-----0---|
           .      .................     .

Intro prt.2
Gtr.1
e|-5-------5-------5------5------5------5---7-9/10-9--------|
B|---7---7---5---5---7--7---5--5---7--7---5-----------------|
G|----------------------------------------------------66----| 2x
D|----------------------------------------------------------| Then
A|----------------------------------------------------------|
D|----------------------------------------------------------|

-00000-00000-0000000000-0000000000---|
-55555-77777-1010101010-1414141414---|
-------------------------------------|
-------------------------------------|
-------------------------------------|
-------------------------------------|

Gtr.2
e|---------------------------------------------|
B|---------------------------------------------|
G|----7-6-7----7-6-7-6-44--7-6-7-9-11-9-7-99---|
D|-55-x-x-x-00-x-x-x-x-xx--x-x-x-x--x-x-x-xx---|
A|-55-5-4-5-00-5-4-5-4-22--5-4-5-7--9-7-5-77---|
D|-55-------00---------------------------------|

e|--------------------------------------------------------------------------------|
B|--------------------------------------------------------------------------------|
G|-77-66--77-66--77-66--7-9-9/11-9-7-9-7-6--666666-999999-11111111-141414141414---|
D|-xx-xx--xx-xx--xx-xx----------------------777777-111111-14141414-161616161616---|
A|-55-44--55-44--55-44------------------------------------------------------------|
D|--------------------------------------------------------------------------------|


Verse:This won't be enough...
Gtr.1
e|------------------------------------------------------------      -------------------------------|
B|------------------------------------------------------------      -------------------------------|
G|-4-44444---------------------------------------------------- 4x   -------------------------------|
D|-4-44444------------------------------------------------2--- Then -7-7-7-7-77777--77-7-7-77777---|
A|-2-22222-----4---5---7---7/9----7---5---4-----4---5---------      -5-5-5-5-55555--55-5-5-55555---|
D|-----------5---5---5---0------0---0---0-----2---2----2------      -5-5-5-5-55555--55-5-5-55555---|
             . . . . . . .      . . . . . .   . . . .  .  .          . . . .           . .

Gtr.2
e|-------------------------------------|
B|-------------------------------------|
G|-4-44444-----------------------------| 2x
D|-4-44444--555555555--000000-222222---| Then
A|-2-22222--555555555--000000-222222---|
D|----------555555555--000000-222222---|
   . .....  .........  ...... ......

But words are like knife....
----------------------------------------------------------------|
-----77-----------------77-----------------------77-------------|
-444----77----------444----77-66666-6-7-6----444----77----------|
-----------7777777------------------------7------------777777---|
----------------------------------------------------------------|
----------------------------------------------------------------|

--------------------------------0-------------0-----------0----------0--------|
-----77-----------------------------------------------------------------------|
-444----77-66666-6h7-6--------7---7---------7---7-------7---7------7---7------|
-----------------------7~---7-------7-----7------7----7----------7--------7---|
--------------------------0~-----------0~----------0~---------0~----------5---|
--------------------------------------------------------------------------5---|


Chorus:Reconcile, leave it all behind...
Play Intro prt.2

Bridge:This will take some time...                One word and I will be...
Gtr.1
e|------------------------------------------------------------------------------|
B|------------------------------------------------------------------------------|
G|------------------------------------------------------------------------------|
D|-00000-0~---00000-0~---99999-9~---99999-9~---55-5555--999-77--55-555-999-77---|
A|-00000-0~---00000-0~---99999-9~---99999-9~---55-5555--999-77--55-555-999-77---|
D|-00000-0~---00000-0~---99999-9~---99999-9~---55-5555--999-77--55-555-999-77---|
   .....      .....      .....      .....      .. ....          .. ...

----------------------------------------------|
----------------------------------------------|
----------------------------------------------|
-55-555-999-77--555-55-999-77--55-555-999-7---|
-55-555-999-77--555-55-999-77--55-555-999-7---|
-55-555-999-77--555-55-999-77--55-555-999-7---|
 .. ...         ... ..         .. ....    .

Gtr.2
e|-------------------------------------------------------------5~-----------|
B|--------------------------------------------------------------------------|
G|----------6---6---7---9~------------6---6---7---9~------6-7------6-7--9b--|
D|-0000-0~----5---5---5-----00000-0~----5---5---5---------------------------|
A|-0000-0~------------------00000-0~----------------------------------------|
D|-0000-0~------------------00000-0-~---------------------------------------|
   ....     . . . . . .     .....     . . . . . .

-10--------10------10----9--------9----------------|
-----10--8----10-8---------10--8----10--8-12\10----|
---------------------------------------------------|
---------------------------------------------------|
---------------------------------------------------|
---------------------------------------------------|

-10------10------10---9h10-9----10-9-----------9-10--------9-10---------------17-----------17------|
----10-8----10-8-------------10------10-8p7b~-------8-7b~-------8p7~----14-15-----15-14-15---------|
---------------------------------------------------------------------------------------------14b---|
---------------------------------------------------------------------------------------------------|
---------------------------------------------------------------------------------------------------|
---------------------------------------------------------------------------------------------------|

Repeat Chorus:

Outro:
Gtr.1
e|--------0~---|
B|-2---2--2~---| Repeat a lot of times....
G|---2----2~---|
D|-------------|
A|-------------|
D|-------------|

Gtr.2

e|-00000-0000000000---|
B|-77777-1010101010---| I'm not that sure with this....
G|--------------------| But I guess it sounds fine...
D|--------------------| Some parts are missing tho, just figure it out by yourself^_^
A|--------------------|
D|--------------------|

End...


Kind of Silence Lyrics

Verse
This wont be enough
All of our conclusions
Silence pulls us further
But we both have much to say

But words are like knives
They will cut us deep
Who will survive?
We dont want to see

Chorus
Reconcile
Leave it all behind
Tell me what you want
Cause I wont mind

Bridge
This will take some time
Im willing to compromise
Put aside the pride
And put the bottle down

One word and I will be relieved
Talk back its just fine with me
One word and I will be relieved
Talk back its just fine
Tap to rate this tab
# A B C D E F G H I J K L M N O P Q R S T U V W X Y Z