Song name
# A B C D E F G H I J K L M N O P Q R S T U V W X Y Z

Typecast - Infatuation Is Always There tab

                     hello im carlo
                     13 years old
                     and this is
                     the infatuation is always there(tab)
                     by: me
                     e2 ang tunay na tab pra sa infatuation!!!!
                     please irate nyu poh!!! dapat 5star hahah^^

LEGEND:/-slide up
       \-slide down
       (at the below of a tab)

          INTRO
          -------------------------------------|
          -------------------------------------|
          -------------------------------------|
          -3-333333--5554444-4/5\4-99-4/5\4-99-|(X2)
          -3-333333--5554444-4/5\4-99-4/5\4-99-|
          -1-111111--3332222-2/3\2-77-2/2\2-77-|

          -----------------------------------------------|
          -----------------------------------------------|
          ---45--45--5---45--457540--45--45--5--45--4575-|
          -----------------------------------------------|(X2)
          -22--22--22--33--33------22--22--22-33--33-----|
          -----------------------------------------------|

          ---------------------------------|
          ---------------------------------|
          -------------9-7-----------------|(x2)
          -5---5------7-------55555555-----|
          -5---5-----7--------55555555-----|
          -2---3----7---------55555555-----|

          -------------------------------------|
          -------------------------------------|
          -------------------------------------|
          -3-333333--5554444-4/5\4-99-4/5\4-99-|(x2)
          -3-333333--5554444-4/5\4-99-4/5\4-99-|
          -1-111111--3332222-2/3\2-77-2/2\2-77-|

          ---------------------------------|
          ---------------------------------|
          -------------9-7-----------------|(x2)
          -5---5------7-------55555555-----|
          -5---5-----7--------55555555-----|
          -2---3----7---------55555555-----|


          -------------------------------------|
          -------------------------------------|
          -------------------------------------|
          -3-333333--5554444-4/5\4-99-4/5\4-99-|(x2)
          -3-333333--5554444-4/5\4-99-4/5\4-99-|
          -1-111111--3332222-2/3\2-77-2/2\2-77-|

          CHORUS
          -----------------------------------------------|
          -----------------------------------------------|
          ---------------------------9-7-----------------|
          -55555555---55555555------7-------55555555-----|(X2)
          -55555555---55555555-----7--------55555555-----|
          -22222222---33333333----7---------55555555-----|


          -----------------------------------------------|
          -----------------------------------------------|
          ---45--45--5---45--457540--45--45--5--45--4575-|
          -----------------------------------------------|(X2)
          -22--22--22--33--33------22--22--22-33--33-----|
          -----------------------------------------------|


          ---------------------------------|
          ---------------------------------|
          -------------9-7-----------------|(x2)
          -5---5------7-------55555555-----|
          -5---5-----7--------55555555-----|
          -2---3----7---------55555555-----|

          -------------------------------------|
          -------------------------------------|
          -------------------------------------|
          -3-333333--5554444-4/5\4-99-4/5\4-99-|(x2)
          -3-333333--5554444-4/5\4-99-4/5\4-99-|
          -1-111111--3332222-2/3\2-77-2/2\2-77-|

          CHORUS
          -----------------------------------------------|
          -----------------------------------------------|
          ---------------------------9-7-----------------|
          -55555555---55555555------7-------55555555-----|(X4)
          -55555555---55555555-----7--------55555555-----|
          -22222222---33333333----7---------55555555-----|

          -----------------------------------------------|
          -----------------------------------------------|
          ---45--45--5---45--457540--45--45--5--45--4575-|
          -----------------------------------------------|(X2)
          -22--22--22--33--33------22--22--22-33--33-----|
          -----------------------------------------------|
Tap to rate this tab
 
# A B C D E F G H I J K L M N O P Q R S T U V W X Y Z