Typecast - You Will Be Alone chords

Highlighted       Show chord diagrams
Typecast
You Will Be Alone
How Your Influence Betrays You
2011
Submitted by: paramore_fans@yahoo.com

Key: Eb

Tuning: Standard EADGBe

Chords used:
Cm -  x35543
Bb -  x13331
G# -  466544
Gm -  355333
G -   320033
Fm -  133111
Bb7 - x13131
F7 -  133241


Intro: Cm-- x4


Verse 1:
Cm    Bb        G#
It's enough for both of us
    Gm
And everyone
Cm       Bb
Curtains down
G#             Gm
Take a bow you had your fun


Pakoy's Solo: Cm-Bb-G#-Gm- x2
e|-8------------------------------|
B|----8/11--6h8p6-----------------|
G|-----------------7h8p7-7h8p7--3-|
D|--------------------------------|
A|--------------------------------|
E|--------------------------------|

e|---------11-10-8--------------------|
B|----8/11----------6h8p6-11\8--------|
G|-5---------------------------3--3/5-|
D|------------------------------------|
A|------------------------------------|
E|------------------------------------|


Verse 2:
Cm       Bb        G#
Who's to blame for all of this?
Gm
Yes we are
    Cm                Bb
The ones who shut the door
   G#
We had our chance
         G
It's too late for changes


Chorus:
Fm         Cm   Bb   Fm
We have no right  to ask
   Bb           Cm-- x8
Why  we'll die alone


Bridge:
G#        Bb     Cm
It's your last embrace
G#        Bb
It's your last


Outro:
Eb(hold)                  Bb(hold)
  Make the most of what's left
                  F7(hold) Bb7(hold) 
cause this is the end 
                Cm(hold)
or you will be alone and
             Bb7(hold)
it's all our fault
                    Cm-Bb-G#-Gm- x2, Cm-Bb-G#-G- x2
The damage has been done
Tap to rate this tab
 
# A B C D E F G H I J K L M N O P Q R S T U V W X Y Z